Acordes y tablaturas para guitarra

Acordes y Tablaturas
Usuario: Password:

Buscar:
Acordes y Tablaturas >> Letra E >> Acordes de Enanitos verdes >> Mil horas
Tablatura de Mil horas, Enanitos verdes

Mil horas

Enanitos verdes






esta rola es muy buena,

primero empieza con un bajeo asi

e--------------------------------------------------------------------
b--------------------------------------------------------------------
g--------------------------------------------------------------------
d--------------------------------------------------------------------
a----------------------------------2-4-4--2-4-4--2-4-4--2-4-4--------
e-4-4--2-4-4--2-4-4--2-4-4-------------------------------------------


e---------------------------------------------------------------------
b---------------------------------------------------------------------
g---------------------------------------------------------------------
d------------------------------------------------------2-4-4--2-4-4---
a------------------------------------2-4-4--2-4-4---------------------
e--2-4-4--2-4-4--2-4-4--2-4-4-----------------------------------------


mientras el bajo hace eso, una guitarra toca estos acordes
con un solo rasgeo

      C#7             D#7             G#m
 e-----4---------------6---------------4----
 b-----5---------------7---------------4----
 g-----4---------------6---------------4----    ( 2 veces )
 d-----6---------------8---------------6----
 a-----4---------------6---------------6----
 e-----4---------------6---------------4----


despues sigue esto


 e-------------------------
 b--4--6-6/7-7--6--4----
 g-------------------------
 d-------------------------
 a-------------------------
 e-------------------------


 e---4--6-6/7-7--6------
 b-------------------------
 g-------------------------
 d-------------------------
 a-------------------------
 e-------------------------

 e------4--4/6--6--4-----
 b--7----------------------
 g-------------------------
 d-------------------------
 a-------------------------
 e-------------------------           ( 2 veces )


ESTE PRIMER PARRAFO SE TOCA A UN SOLO RASGEO

C#m7    D#m7         G#m
Hace frío y estoy lejos de casa,
      C#m7               D#m7             G#m
hace tiempo que estoy sentado sobre esta piedra,
         C#m7       D#m7           G#m
yo me pregunto para que sirven las guerras


AQUI YA TOCAS EL RITMO NORMAL

Una guitarra lo puede tocar con los acordes y la otra asi pero con una distorsion

e----------------------------------------------------------------------
b----------------------------------------------------------------------
g----------------------------------------------------------------------
d----------------------------------------------------------------------
a--4--2-2-4------------------------2-----------------------------------
e--------------2-2--4-----2-2--4---------------------------------------


                            ( 4 veces )



          C#m7           B G#m  B
Tengo un cohete en el pantalón,
  C#m7       B   G#m
y vos estas tan fría,
   B     C#m7          B   G#m  B
como la nieve a mi alrededor,
C#m7       B   G#m
vos estas tan blanca,
           E
que yo no se que hacer

G#m                                        C#m7
La otra noche te espere bajo la lluvia dos horas,
     D#m7           E
mil horas, como un perro,
G#m                                        C#m7
y cuando llegaste me miraste y me dijiste Loco,
        D#m7             E
estas mojado, ya no te quiero  a…a...a


 e-------------------------
 b--4--6-6/7-7--6--4-------
 g-------------------------
 d-------------------------
 a-------------------------
 e-------------------------


 e---4--6-6/7-7--6---------
 b-------------------------
 g-------------------------
 d-------------------------
 a-------------------------
 e-------------------------

 e------4--4/6--6--4-------
 b--7----------------------
 g-------------------------
 d-------------------------
 a-------------------------
 e-------------------------           ( 2 veces )



VUELVES A TOCAR A UN SOLO RASGEO

        C#m7      D#m7         G#m
Y en el circo vos ya sos una estrella,
        C#m7          D#m7          G#m
una estrella roja que todos se la imagina,  se lo alucina
          C#m7
si te preguntan,
     D#m7     G#m
vos no me conocías, no, no

NUEVAMENTE TOCAS EL RITMO NORMAL

C#m7           B G#m  B
Tengo un cohete en el pantalón,
  C#m7       B   G#m
y vos estas tan fría,
   B     C#m7          B   G#m  B
como la nieve a mi alrededor,
C#m7       B   G#m
vos estas tan blanca,
           E
que yo no se que hacer

G#m                                        C#m7
La otra noche te espere bajo la lluvia dos horas,
     D#m7           E
mil horas, como un perro,
G#m                                        C#m7
y cuando llegaste me miraste y me dijiste Loco,
        D#m7             E
estas mojado, ya no te quiero  aaaaaaaayeah….

(SOLO)

ESTE SE LOS DEBO, ESTOY TRABAJANDO EN EL PERO DESPUES SE LOS MANDO


C#m7           B G#m  B
Tengo un cohete en el pantalón,
  C#m7       B   G#m
y vos estas tan fría,
   B     C#m7          B   G#m  B
como la nieve a mi alrededor,
C#m7       B   G#m
vos estas tan blanca,
           E
que yo no se que hacer

G#m                                        C#m7
La otra noche te espere bajo la lluvia dos horas,
     D#m7           E
mil horas, como un perro,
G#m                                        C#m7
y cuando llegaste me miraste y me dijiste Loco,
        D#m7             E
estas mojado, loco estas mojado…… ya no te quiero……

 e-------------------------
 b--4--6-6/7-7--6--4-------
 g-------------------------
 d-------------------------
 a-------------------------
 e-------------------------


 e---4--6-6/7-7--6---------
 b-------------------------
 g-------------------------
 d-------------------------
 a-------------------------
 e-------------------------

 e------4--4/6--6--4-------
 b--7----------------------
 g-------------------------
 d-------------------------
 a-------------------------
 e-------------------------      ya no te quiero.....


(   4 veces   )
 En la ultima vuelta,  hay una pequeña variación al final,
pero es muy fácil de sacarla a oído, eso se los dejo de tarea a ustedes,
por mi parte eso es todo,  espero que le sirva.

P.d: Este es mi segundo tab., así es que si tengo algún error,
háganmelo saber a través de mi correo. OK
Alrra y
Que Viva el rock & rollllllllllllllllllll

Ah y un saludo a
la Falcultad de Ciencias Quimicas e Ingenieria de la UABC
Arriba los electronicossssssssss.......jejejeje

Atte: El Cuautle

Fuente original: LaCuerda
Colaborador original: Omar Guerrero Cuautle [[email protected]]

Que te parecio? Calificalo con estrellas!!

Rating: 5.0/10 (62 votos)

Este fichero es trabajo propio de su transcriptor y representa su interpretación personal de la canción. El material contenido en esta página es para exclusivo uso privado, por lo que se prohibe su reproducción o retransmisión, así como su uso para fines comerciales.


Deja tus comentarios:

Letras de Enanitos verdes
Letras de canciones | Musica Independiente