Enviado por:
Anonimo

Enanitos Verdes, Mal De Amores

Imprimir
Intro

F#m E Bm D E

requinto del intro
              F#m            E           Bm       D   E
E--------------------------------------------------
A----------------------------7---------------------
D---------------4----------------------------------
G-----6p7p6p7p6---6p7p6p7p6----6p7p6p7p6--4--------
B-------------------------------------------3-5-7--
e--------------------------------------------------
              F#m            E           Bm       D   E
E--------------------------------------------------
A----------------------------7---------------------
D---------------4----------------------------------
G-----6p7p6p7p6---6p7p6p7p6----6p7p6p7p6--4--------
B-------------------------------------------3-5-7--
e--------------------------------------------------

   F#m               E
Sentado frente al papel 
   Bm                  D
la luz de la luna me Baña me alumbra
 F#m               E
te dije te escribire
  Bm                   D
y no se por donde empesar la estructura
     A            A/G#     Bm             C#7              F#m E Bm D
tal vez me toco perder no tengo palabras para llenear el papel...ahaa

F#m E Bm D E (requinto del intro) X 1

 F#m              E
Aun recuerdo tu piel 
    Bm               D
mis manos parecen tocarte de nuevo
 F#m              E
tus ojos claros mujer 
    Bm                D
tu cuerpo perfecto tu pelo en el viento
     A             A/G#     
fue bueno mientras duro
  Bm                 D
pasamos momentos que no olvidaremos
 F#m                  E
pero la distancia es cruel 
 Bm                  C#7              F#m  E  Bm D
ahora estoy lejos no puedo llenar el papel...ahaa

CORO

  E                         Bm  (Riff)
Espero que me puedas comprender
   A                       E
la vida esta llena de emociones 
  F#m              E
mitad de cielo , mitad de infierno
 Bm                D
aveces gano    , aveces pierdo
   F#m       E          Bm     D
no necesito darte explicaciones  
  F#m              E
mitad de cielo , mitad de infierno
 Bm                D
aveces gano    , aveces pierdo
    A                            E     C#7
no existe nada contra el mal de amores

(SOLO) 
F#m  E Bm D E F#m E Bm D E 

SOLO:
                      (Rapido)
E-------------------------------------------------------------------
A-------------------------------------------------------------------
D-----------------4-4h7------------------------------------------11-
G-------6p7p6p7p6-------6---------------6-6s9-------------9-9s11----
B-------------------------7-5-7-------5-------7^-9-10-9-7-----------
e-------------------------------4-5-4-------------------------------

--------------------------------------------------------------------
-----------------7--------------------------------------------------
---------7p6p7p6----------------------------------------------------
-764764-------------------------------------------------------------
-------------------------5-7-------5-7-------5-7--------7-7-7-7-----
-------------------4p5p4-----4-5-4-----4-5-4-----4-5-4--7-7-9-7-----
 (rapido)
--------------------------------------------------------------------
--------------------------------------------------------------------
--------------------------------------------------------------------
--------------------------------------------------------------------
-7-7-7-7--10-10-10-10--10-10-10-10--12-12-12-12--14-14-14-14--------
-7-7-9-7--10-10-12-10--10-10-12-10--12-12-14-12--14-14-16-14--------

^ - full arriba
p - punteado
s - slay
h - hamer on
 
   F#m               E
Sentado frente al papel 
    Bm                D
yo lleno mi cuerpo tatuado tus besos
   F#m             E
el aire tiene tu olor 
     Bm                   D
o en mi pensamiento lo traigo de nuevo
     A             A/G#     
fue bueno mientras duro
 Bm                  C#7                  F#m  E  Bm D
ahora estoy lejos mi sangre en la arena corrio...ahaa

CORO

  E                         Bm  (riff)
Espero que me puedas comprender
   A                       E
la vida esta llena de emociones 
  F#m              E
mitad de cielo , mitad de infierno
 Bm                D
aveces gano    , aveces pierdo
   F#m       E          Bm     D
no necesito darte explicaciones  
  F#m              E
mitad de cielo , mitad de infierno
 Bm                D
aveces gano    , aveces pierdo
    A                            E    
no existe nada contra el mal de amores
  F#m              E
mitad de cielo , mitad de infierno
 Bm                D
aveces gano    , aveces pierdo
    A                            E     C#7
no existe nada contra el mal de amores
 
(requinto del intro) 

F#m E Bm D E 
  
F#m    E           Bm  D       E F#m E Bm D E F#m
......mal de amores...mal de amores



 RIFF
E---------------------------  
A-----------------12--------  
D-------9-12-11-9----11-----  
G-9-7-6---------------------  
B---------------------------  
e---------------------------  


ACORDES

A/G# - 402200
C#7  - 446464

Fuente original: LaCuerda
Colaborador original: VICTOR ORTIZ ARANGO [tonatiuh18@hotmail.com]
Aviso: Este fichero es trabajo propio de su transcriptor y representa su interpretación personal de la canción. El material contenido en esta página es para exclusivo uso privado, por lo que se prohibe su reproducción o retransmisión, así como su uso para fines comerciales.

Califica esta canción


Comentarios en Facebook