Enviado por:
Anonimo

Enanitos Verdes, Luz De Dia

Intro:
  Am    G        F            C
1-----------------------------------------
2---------------------------6-5---5-5-----
3----4---------4-5-----------7-5-----7~---
4-7~--7-5~-5-7----7-7-5-7~------7---------
                Am
Destapa el champagne
           G
apaga las luces
             F
dejemos las velas encendidas 
     C          G
y afuera las heridas

               Am
Ya no pienses mas
                1----3--------------
                2-3h5--5-3----------
              G 3---------4~--------
en nuestro pasado
              F
hagamos que choquen 
             
nuestras copas
       C            G
por habernos encontrado

           C              G
Y porque puedo mirar el cielo,
           Am                F 
besar tus manos, sentir tu cuerpo,
          C              G
decir tu nombre y las caricias
           Am                 F
seran la brisa que aviva el fuego 
          C     G           Am-F               
de nuestro amor, de nuestro amor
   C              G                Am
Puedo ser luz de noche ser luz de dia, 
           F              C
frenar el mundo por un segundo
         G                Am
y las caricias seran la brisa
               F
que aviva el fuego                      Am                   Am-F
                          1---12~-12-13-15-13-12-13-12-10-8~---  
         C                 G
de nuestro amor, de nuestro amor.

Solo:        Am            G
1-----5----------------------------------
2--8---5----------------5-----8s10-10~--
3---------7~-5~------5-7---7~------------
4----------------5h7---------------------
                                  C
1---12-12-10--8-10-12-10--8-10--8~---
2---13-13-12-10-12-13-12-10-12-10~---
                      G
1--7h8p7-----------------
2--------8-7---5h7-5~~---
3------------7-----------
             Am                G
El tiempo dejo su huella inborrable
                   F
y aunque nuestras vidas son distintas
      C          G
esta noche todo vale
                   1------3-------------       
                   2--3h5---5-3---------
                Am 3-----------5~-------
Tu piel y mi piel, 
                   1-3-5-7-5-3~--
                G  2-------------                                 
ves que se reconocen
         F       
es la memoria que hay 
     C           G
en nuestros corazones

(coro)

Fuente original: LaCuerda
Colaborador original: Jesus Bermudez [jesus_jaguares@hotmail.com]
Aviso: Este fichero es trabajo propio de su transcriptor y representa su interpretación personal de la canción. El material contenido en esta página es para exclusivo uso privado, por lo que se prohibe su reproducción o retransmisión, así como su uso para fines comerciales.

Califica esta canción


Comentarios en Facebook