Acordes y tablaturas para guitarra

Acordes y Tablaturas
Usuario: Password:

Buscar:
Acordes y Tablaturas >> Letra E >> Acordes de Enanitos verdes >> Lamento boliviano
Tablatura de Lamento boliviano, Enanitos verdes

Lamento boliviano

Enanitos verdes






solo
 Em-Bm7   Em-Bm7  Am7-Bm7   Em-Bm7
e-----0--2--3--2--0------------0--3--2--0------2----
B--0-----------------0---0--3--------------3--------
G--------------------------------------------------3

e--------12-10-12------------------------
B--12-12-----------12-10------10-12-10---
G-------------------------12-----------12

e------------------------------------
B--10-12-10-----10-12-10--------------
G------------12-----------12-11-12-11h

e----------------------15----15-14-12----15-14-12-----------
B-------------------17----------------------------10-12-9-10
G----------------16-----------------------------------------
D-------------17--------------------------------------------
A--14-13-14-------------------------------------------------

e---------------------------------
B-------10-12-10-----10--12-10----
G--9-12-----------12------------12

e--15-15---14---12---15-----14-----12-----------------
B------------------------14----13------10-----12------
G-------------------------------------------------12-9


El Outro
e--------------------------------------8-----------------10-7
B-8-7---------8-7-------------------8-----10--------8-10-----
G------9-7-9-------9-7-9------8-10------------7-10-----------
D-------------------------10---------------------------------

e---------------------12
B--8-7------------------
G-------9-7-9---7-7-----
D-------------------9---

Fuente original: LaCuerda
Colaborador original: Fernando [Prieto]

Que te parecio? Calificalo con estrellas!!

Rating: 7.3/10 (429 votos)

Este fichero es trabajo propio de su transcriptor y representa su interpretación personal de la canción. El material contenido en esta página es para exclusivo uso privado, por lo que se prohibe su reproducción o retransmisión, así como su uso para fines comerciales.


Deja tus comentarios:

Letras de Enanitos verdes
Letras de canciones | Musica Independiente