Acordes y tablaturas para guitarra

Acordes y Tablaturas
Usuario: Password:

Buscar:
Acordes y Tablaturas >> Letra E >> Acordes de Enanitos verdes >> Lamento boliviano
Tablatura de Lamento boliviano, Enanitos verdes

Lamento boliviano

Enanitos verdes






Aqui mando La original Tablatura de Lamento Boliviano con los verdaderos acordes.
Soy de Cali/Colombia. Vale la pena aprendersela!!

Acordes:

 MIm  SIm  LAm  SI7
e---7----7----5----7---
B---8----7----5----7---
G---9----7----5----8---
D---9----9----7----7---
A---7----9----7----9---
E---7----7----7----7---

Mim                                       Sim                   
Me quieren agitar, me incitan a gritar... soy como una roca, palabras no me tocan
Lam                                                Sim              Si7
adentro hay un volcan, que pronto va a estallar... yo quiero estar tranquilo  
                                                                            e--------
                                                                            B----7---  
                                                                            G---8-8--  
                                                                            D--7-----
                                                                            A-9------
                                                                            E--------    
 
Mim                                  Sim                                   
Es mi situacion , muna desolacion... soy como un lamento, lamento boliviano
Lam                                     Sim             Si7
Que un dia empezo y no va a terminar... y a nadie hace daño
                                                            e--------
                                                            B----7---  
                                                            G---8----
                                                            D--7-----
                                                            A-9------
                                                            E--------  
Uo... io io... eehh...  ehhhh...      
--7-----7--7-----5--5-----7--------------------
--8-----7----7---5---5----7--------------------
--9-----7--------5--------7--------------------
--9-----9--------7----7---9--7-7-7-7-7-7-7-7---
--7-----9--------7--------9--9-9-9-9-9-9-9-9---
--7-----7--------5--------7--7-7-7-7-7-7-7-7---

Mim                           Sim          Lam                   Sim         Si7
Y hoy esoy aqui... borracho y loco... y mi corazon idiota... siempre brillara
Mim                           Sim               Lam 
y yo te amare... te amare por siempre.... nena no te peines en la cama...
                   Sim         Si7
que los viajantes se van a trasar.


<>

   MIm                       SIm                      LAM
e---------------|---2h3p3---------------------|---------12--------------------|-
B--0-5-7-8-7----|--3------5h3-5/7-------------|------------15^--15------------|-
G------------4--|-4---------------------------|-13-13h15-----------14-12-14v--|-
D---------------|------------------9v-7h9p7v--|-------------------------------|-
A---------------|-----------------------------|-------------------------------|-
E---------------|-----------------------------|-------------------------------|-

        SIm             SI7               MIm
e--------------------------------|-12h14-15^--15-14-12--15-14-12--15-14-12--|-
B--16h14h12p14--12-11-12^--------|------------------------------------------|-
G-------------------------12-11--|------------------------------------------|-
D--------------------------------|------------------------------------------|-
A--------------------------------|------------------------------------------|-
E--------------------------------|------------------------------------------|-

  MIm                 SIm                                      LAm                SI7
e-----------------|---------------------------------|-------14-14h15-14-16--|14/15-----
B--10-12-10/9h10--|------10h11-10h11--12h11/10------|-----------------------|------14--
G-----------------|-9h10-----------------------12v--|--12h14----------------|----------
D-----------------|---------------------------------|-----------------------|----------
A-----------------|---------------------------------|-----------------------|----------
E-----------------|---------------------------------|-----------------------|----------

              Si7
e--12/13----12/13-------------------
B--------12-------10-12^--10--------
G----------------------------12-10--
D-----------------------------------
A-----------------------------------
E-----------------------------------

Uo...       io io... eehh...  ehhhh...      
e--7--7--7---7-7-----5--5-----7--------------------
B--8---8-8---7--7----5--5-----7--------------------
G--9---------7---7---5----5---7--------------------
D--9---------9-------7----7---9--7-7-7-7-7-7-7-7---
A--7---------9-------7--------9--9-9-9-9-9-9-9-9---
E--7---------7-------5--------7--7-7-7-7-7-7-7-7---

Mim                      Sim          Lam                   Sim         Si7
Y hoy esoy aqui... borracho y loco... y mi corazon idiota... siempre brillara
Mim                      Sim               Lam 
y yo te amare... te amare por siempre.... nena no te peines en la cama...
Sim         Si7
que los viajantes se van a trasar.

Mim                      Sim          Lam                   Sim         Si7
Y hoy esoy aqui... borracho y loco... y mi corazon idiota... siempre brillara
Mim                      Sim               Lam 
y yo te amare... te amare por siempre.... nena no te peines en la cama...
                                e------------------    
                                B--10/12-12-10-----
                                G--------------12--
                                D------------------(x2)
Sim         Si7                 
que los viajantes se van a trasar.

e----------------------------------------------------------------------
B--7h8-7-----------------7h8-7-----------------------------------------
G--------9-7-9v----------------9-7-9v-----------------5----------7-----
D----------------9-9-0----------------9-9-0---------5---7v-----7---9v--
A----------------7-7-0-9--------------7-7-0-9---5h7--------7h9---------
E----------------------7--------------------7--------------------------

e--------------7-7-0--12---
B--8-7---------8-8-0--12---
G------9-7-9v--9-9-0--12---
D--------------9-9-0-------
A--------------7-7-0-------
E--------------7-7-0-------

Fuente original: LaCuerda
Colaborador original: Jhon Alexander Latorre [[email protected]]

Que te parecio? Calificalo con estrellas!!

Rating: 7.6/10 (210 votos)

Este fichero es trabajo propio de su transcriptor y representa su interpretación personal de la canción. El material contenido en esta página es para exclusivo uso privado, por lo que se prohibe su reproducción o retransmisión, así como su uso para fines comerciales.


Deja tus comentarios:

Letras de Enanitos verdes
Letras de canciones | Musica Independiente