Enviado por:
anonimo

Musica De Tv, Hallelujah (shrek)

Imprimir
INTRO

   C             Am            C             Am
e|-------0-----|-------0-----|-------0-----|-------0-----|
B|-----1---1---|-----1---1---|-----1---1---|-----1---1---|
G|---0---------|---2---------|---0---------|---2-------0-|
D|-------------|-------------|-------------|-------------|
A|-3---------2-|-0---------2-|-3---------2-|-0-----------|
E|-------------|-------------|-------------|-------------|

ESTROFA

   C             Am            C             Am
e|-------0-----|-------0-----|-------0-----|-------0-----|
B|-----1---1---|-----1---1---|-----1---1---|-----1---1---|
G|---0---------|---2---------|---0---------|---2-------0-|
D|-------------|-------------|-------------|-------------|
A|-3---------2-|-0---------2-|-3---------2-|-0-----------|
E|-------------|-------------|-------------|-------------|

   F             G             C             G
e|-------1-----|-------3-----|-------0-----|-------3-----|
B|-----1---1---|-----0---0---|-----1-------|-----0---0---|
G|---2-------2-|---0-------0-|---0---------|---0-------0-|
D|-------------|-------------|-------------|-------------|
A|-------------|-------------|-3-----------|-------------|
E|-1-----------|-3-----------|---------0-1-|-3-----------|

   C             F     G       Am            F 
e|-------0-----|-------------|-------0-----|-------1-----|
B|-----1---1---|-----1-----0-|-----1---1---|-----1---1---|
G|---0-------0-|---2-----0---|---2-------2-|---2-------2-|
D|-------------|-------------|-------------|-------------|
A|-3-----------|-------------|-0-----------|-------------|
E|-------------|-1-----3-----|-------------|-1-----------|

   G             Em            Am            Am
e|-------3-----|-------0-----|-------0-----|-------0-----|
B|-----0---0---|-----0---0---|-----1---1---|-----1---1---|
G|---0-------0-|---0-------0-|---2-------2-|---2-------2-|
D|-------------|-------------|-------------|-------------|
A|-------------|-------------|-0-----------|-0-----------|
E|-3-----------|-0-----------|-------------|-------------|

CORO

   F             F             Am            Am
e|-------1-----|-------1-----|-------0-----|-------0-----|
B|-----1---1---|-----1---1---|-----1---1---|-----1---1---|
G|---2-------2-|---2-------2-|---2-------2-|---2-------2-|
D|-------------|-------------|-------------|-------------|
A|-------------|-------------|-0-----------|-0-----------|
E|-1-----------|-1-----------|-------------|-------------|

   F             F             C             G             C             G
e|-------1-----|-------1-----|-------0-----|-------3-----|-------0-----|-------3-----|
B|-----1---1---|-----1---1---|-----1-------|-----0---0---|-----1---1---|-----0---0---|
G|---2-------2-|---2-------2-|---0---------|---0-------0-|---0-------0-|---0-------0-|
D|-------------|-------------|-------------|-------------|-------------|-------------|
A|-------------|-------------|-3-----------|-------------|-3-----------|-------------|
E|-1-----------|-1-----------|---------0-1-|-3-----------|-------------|-3-----------|
Aviso: Este fichero es trabajo propio de su transcriptor y representa su interpretación personal de la canción. El material contenido en esta página es para exclusivo uso privado, por lo que se prohibe su reproducción o retransmisión, así como su uso para fines comerciales.

Califica esta canción


Comentarios en Facebook