Enviado por:
anonimo

Chico Trujillo, Fuera De Mi Vida

Intro: Em - F# - Bm

D6add11+
e||---------|---------|---------|---------|
B||---------|----1----|---------|---------|
G||---------|----1----|---------|----3----|
D||---------|----1----|---------|---------|
A||---------|----1----|----2----|---------|
E||---------|----1----|---------|----4----|

Bm                  Em
Fuera, fuera de mi vida
           A                 Dmaj7
No quiero más control y desamor
                G                       Em
Si es de es verdad que me quieres un poquito
         F#                     Bm
Déjame libre para que pase el dolor.


                             Em
Y es que ya hemos tenido demasiado
          A                       Dmaj7
La rabia sin razón, ésa que nos mató a los dos
          G                       Em
Si nos juntamos con el favor del cielo
        F#                    Bm
Ahora mismito escribámosle a Dios.


Estribillo
                                    Em
Que fue verdad que nos amamos con locura
                 A                                Dmaj7
Que tu cuerpo con mi cuerpo fue un regalo de su amor
                     G                     Em
Desde este puerto querido, donde salí a la vida
           F#                     Bm
Te pido paciencia, coraje y un adiós.


[Instrumental]

Se repiten ambas estrofas y el estribillo


Final:
            Em       F#          Bm
Te pido paciencia, coraje y un adiós
           Em        F#     Bm
Te pido paciencia, coraje?      y un adiós.

D6add11+
e||---------|---------|---------|---------|
B||---------|----1----|---------|---------|
G||---------|----1----|---------|----3----|
D||---------|----1----|---------|---------|
A||---------|----1----|----2----|---------|
E||---------|----1----|---------|----4----|
Aviso: Este fichero es trabajo propio de su transcriptor y representa su interpretación personal de la canción. El material contenido en esta página es para exclusivo uso privado, por lo que se prohibe su reproducción o retransmisión, así como su uso para fines comerciales.

Califica esta canción


Comentarios en Facebook