Enviado por:
Anonimo

Enanitos Verdes, Cada Vez Que Te Digo Adios

Imprimir
(Empieza como tipo arpegio en Re,cambia a Bm,G,Em,A)
INTRO
         D                      D
E---2----2/3------2---|-----2----2/3------2-|----------
B--3----3------3------|---3----3------3-----|----------
G-2-------------------|-2-------------------|----------
D---------------------|---------------------|----------
A---------------------|---------------------|----------
E---------------------|---------------------|----------

      Bm                  Bm          
E-------2-----|----------2------|----------------------
B---3-----3---|-------3-----3---|----------------------
G--4--4----4--|-----4- -4----4--|----------------------
D-4-----------|---4-------------|----------------------
A-------------|-----------------|----------------------
E-------------|-----------------|----------------------

          G               A                 
E-----------3--------|-------5-------------------------
B------3-----3---3---|----5----5----5------------------
G-----4---4---4------|---6---6---6---------------------
D----5---------------|--7------------------------------
A--------------------|---------------------------------
E--------------------|---------------------------------


         D                      D
E---2----2/3------2---|-----2----2/3------2-|----------
B--3----3------3------|---3----3------3-----|----------
G-2-------------------|-2-------------------|----------
D---------------------|---------------------|----------
A---------------------|---------------------|----------
E---------------------|---------------------|----------

      Bm                  Bm          
E-------2-----|----------2------|----------------------
B---3-----3---|-------3-----3---|----------------------
G--4--4----4--|-----4- -4----4--|----------------------
D-4-----------|---4-------------|----------------------
A-------------|-----------------|----------------------
E-------------|-----------------|----------------------

          G               A                 
E-----------3--------|-------5-------------------------
B------3-----3---3---|----5----5----5------------------
G-----4---4---4------|---6---6---6---------------------
D----5---------------|--7------------------------------
A--------------------|---------------------------------
E--------------------|---------------------------------


Ya voy en la mitad del solo si lo sacan antes mandenmelo.

Fuente original: LaCuerda
Colaborador original: CHRISTIAN GOMEZ CONTRERAS [[email protected]]
Aviso: Este fichero es trabajo propio de su transcriptor y representa su interpretación personal de la canción. El material contenido en esta página es para exclusivo uso privado, por lo que se prohibe su reproducción o retransmisión, así como su uso para fines comerciales.

Califica esta canción


Comentarios en Facebook