Enviado por:
Alberto Meza

Bersuit Vergarabat, Agradezco

Melodía de la guitarra:
E -----------------------------------------------
B -----------------------------------------------
G ----------4------------------------------------
D ------5-5-------5-5-7-----4-4-7------4444-5-2--
A --5-5-------5-5-------5-5-------5-5------------
E -----------------------------------------------

E --------------------------
B --------------------------
G ----------2---------------
D --2-2-555---4----4-5-/7---
A --------------------------
E --------------------------

Un golpe en G y luego inicia el acompañamiento:

   D C D
 G D C D 

     G                                        Bm
Agradezco estar vivo un día más en la faz de la tierra
     C                                D
Agradezco al sol y la luna, la lluvia y el mar
     G                                Bm
Agradezco poderte abrazar, decirte que te quiero
     C                                D
Agradezco la música al viento y poder cantar

      G             
Tener un corazón que bombea
             Bm
Y en los pulmones ramos de ilusiones
                  C
Tu amor que me espera, tus labios redondos
           D#
Y rojos abiertos en flor

     G
Agradezco tener la salud de mi lado
    Bm
Viajar con canciones hacia todos lados
   C                                   D
Haber sobrevivido y todavía aprender y soñar

               G
Pero no tengo casa, no tengo norte
           Bm
Mi vieja llora, no tengo tiempo
                 C
Porque siempre vuelo
                                    D
Porque siempre ando de aquí para allá

          G
No tengo casa, no tengo norte
           Bm
Soy un fantasma, siempre estoy lejos
            C
No tengo un eje, no tengo un suelo
             D
Donde aterrizar


En esta parte los acordes en paréntesis se tocan más seguido:

[G Bm C D] C D

Melodía de guitarra:
E -----------------------------------------------
B -----------------------------------------------
G ----------4------------------------------------
D ------5-5-------5-5-7-----4-4-7------4444-5-2--
A --5-5-------5-5-------5-5-------5-5------------
E -----------------------------------------------

E ------------------------------
B --------------------------8---
G ----------2-------------------
D --2-2-555---4----4-5-/7-9-----
A ------------------------------
E ------------------------------

     G                            Bm
Agradezco no tener ni idea que pasará luego
     C                                   D
Agradezco que el aquí y ahora me vuelva a encontrar
     G                                Bm
Agradezco poder reconocer algunos de mis defectos
     C                            D
Agradezco aún tener amigos y poder cambiar

      G             
Tener un corazón que bombea
             Bm
Y en los pulmones ramos de ilusiones
                  C
Tu amor que me espera, tus labios redondos
           D#
Y rojos abiertos en flor

     G
Agradezco tener la salud de mi lado
    Bm 
Viajar con canciones hacia todos lados
   C                                   D
Haber sobrevivido y todavía aprender y soñar

               G
Pero no tengo casa, no tengo norte
           Bm
Mi vieja llora, no tengo tiempo
                 C
Porque siempre vuelo
                                    D
Porque siempre ando de aquí para allá

          G
No tengo casa, no tengo norte
           Bm
Soy un fantasma, siempre estoy lejos
            C
No tengo un eje, no tengo un suelo
             D
Donde aterrizar


Otra vez esta parte pero ahora se toca dos veces:

[G Bm C D] C D

Termina con cuatro golpes en G
Aviso: Este fichero es trabajo propio de su transcriptor y representa su interpretación personal de la canción. El material contenido en esta página es para exclusivo uso privado, por lo que se prohibe su reproducción o retransmisión, así como su uso para fines comerciales.

Califica esta canción


Comentarios en Facebook