Enviado por:
Anonimo

Enanitos Verdes, Aun Sigo Cantando

Esta rola que transcribo es con una dedicatoria muy especial, a
todos mis amigos con los que añoramos los ´tiempos aquellos´ donde
cantabamos esta cancion y esperabamos tiempos mejores, recordarles 
que aun no nos separamos pese a todo lo sucedido. Recuerden que aun 
somos los mismos y nunca lo dejaremos de ser, aunque el espejo diga 
lo contrario. Ya habra oportunidad de juntarnos a cantarla una vez mas.
Y tambien va para los ´nuevos amigos´con los que tambien la cantaremos.
Su amigo de siempre Berly ...
NOTA: La tablatura es muy sencilla, solo necesitas practicarla, si hay
algun errorcito me avisan ...

           INTRO : 
__
   
_  1|--------0--------------0------------------------------------------------------
_) 2|-----2-----2--------2-----2---------------------------------------------------
   3|----2-2---2-2------2-2---2-2--------------------------------------------------
_  4|------------------------------------------------------------------------------
_) 5|-0--------------0-------------------------------------------------------------
   6|------------------------------------------------------------------------------
__/                   


                     En aquel cajon esta tu foto 
__ 
   
_  1|--------0--------------0--------------0--------------0------------------------
_) 2|-----2-----2--------2-----2--------2-----2--------2-----2---------------------
   3|----2-2---2-2------2-2---2-2------1-1---1-1------1-1---1-1--------------------
_  4|------------------------------------------------------------------------------
_) 5|-0--------------0---------------0--------------0------------------------------
   6|------------------------------------------------------------------------------
__/
                        llenandose de tierra
__ 
   
_  1|---------0----------------0-----------------2---------------2-----------------
_) 2|-----2------2---------2-------2----------3------3-------3-------3-------------
   3|----0-0----0-0-------0-0-----0-0--------2-2----2-2-----2-2-----2-2------------
_  4|------------------2-------------------0--------------0------------------------
_) 5|--0---------------------------------------------------------------------------
   6|------------------------------------------------------------------------------
__/  
                        hace tanto que no la veo 
__
   
_  1|---------1------------1---------------0---------------0-----------------------
_) 2|------3-----3------3-----3---------2------2--------2------2-------------------
   3|-----2-2---2-2----2-2---2-2-------2-2----2-2------2-2----2-2------------------
_  4|---0------------0-------------------------------------------------------------
_) 5|------------------------------0-----------------0-----------------------------
   6|------------------------------------------------------------------------------
__/  
                        como a vos, como a vos. 
__
   
_  1|----------2-------------2-------------0-------------0----------2------0-------
_) 2|------0------0-------0-----0-------3------3------3-----3------3------0--------
   3|-----2-2----2-2-----2-2---2-2-----1-1----1-1----1-1---1-1----2------1---------
_  4|------------------1---------------------------2-------------0------2----------
_) 5|--2----------------------------2----------------------------------2-----------
   6|------------------------------------------------------------------------------
__/
                        Te acordas que tiempos aquellos 
__ 
   
_  1|--------0--------------0--------------0--------------0------------------------
_) 2|-----2-----2--------2-----2--------2-----2--------2-----2---------------------
   3|----2-2---2-2------2-2---2-2------1-1---1-1------1-1---1-1--------------------
_  4|------------------------------------------------------------------------------
_) 5|-0--------------0---------------0--------------0------------------------------
   6|------------------------------------------------------------------------------
__/
                             que tiempos aquellos
__ 
   
_  1|---------0----------------0-----------------2---------------2-----------------
_) 2|-----2------2---------2-------2----------3------3-------3-------3-------------
   3|----0-0----0-0-------0-0-----0-0--------2-2----2-2-----2-2-----2-2------------
_  4|------------------2-------------------0--------------0------------------------
_) 5|--0---------------------------------------------------------------------------
   6|------------------------------------------------------------------------------
__/  
                        en donde todo era un buen motivo 
__
   
_  1|---------1------------1---------------0---------------0-----------------------
_) 2|------3-----3------3-----3---------2------2--------2------2-------------------
   3|-----2-2---2-2----2-2---2-2-------2-2----2-2------2-2----2-2------------------
_  4|---0------------0-------------------------------------------------------------
_) 5|------------------------------0-----------------0-----------------------------
   6|------------------------------------------------------------------------------
__/  
                             para decir   te quiero
__
   
_  1|----------2-------------2-------------0-------------0----------2--------------
_) 2|------0------0-------0-----0-------3------3------3-----3------3---------------
   3|-----2-2----2-2-----2-2---2-2-----1-1----1-1----1-1---1-1----2----------------
_  4|------------------1---------------------------2-------------0-----------------
_) 5|--2----------------------------2----------------------------------------------
   6|------------------------------------------------------------------------------
__/
                     Que le habra pasado a la vida  
__ 
   
_  1|--------0--------------0--------------0--------------0------------------------
_) 2|-----2-----2--------2-----2--------2-----2--------2-----2---------------------
   3|----2-2---2-2------2-2---2-2------1-1---1-1------1-1---1-1--------------------
_  4|------------------------------------------------------------------------------
_) 5|-0--------------0---------------0--------------0------------------------------
   6|------------------------------------------------------------------------------
__/
                        que sin quererlo ya ni me acuerdo 
__ 
   
_  1|---------0----------------0-----------------2---------------2-----------------
_) 2|-----2------2---------2-------2----------3------3-------3-------3-------------
   3|----0-0----0-0-------0-0-----0-0--------2-2----2-2-----2-2-----2-2------------
_  4|------------------2-------------------0--------------0------------------------
_) 5|--0---------------------------------------------------------------------------
   6|------------------------------------------------------------------------------
__/  
                         cuando con mi viejo iba a la cancha 
__
   
_  1|---------1------------1---------------0---------------0-----------------------
_) 2|------3-----3------3-----3---------2------2--------2------2-------------------
   3|-----2-2---2-2----2-2---2-2-------2-2----2-2------2-2----2-2------------------
_  4|---0------------0-------------------------------------------------------------
_) 5|------------------------------0-----------------0-----------------------------
   6|------------------------------------------------------------------------------
__/  
                            a ver a aquel atlético 
__
   
_  1|----------2-------------2-------------0-------------0----------2------0-------
_) 2|------0------0-------0-----0-------3------3------3-----3------3------0--------
   3|-----2-2----2-2-----2-2---2-2-----1-1----1-1----1-1---1-1----2------1---------
_  4|------------------1---------------------------2-------------0------2----------
_) 5|--2----------------------------2----------------------------------2-----------
   6|------------------------------------------------------------------------------
__/
    
                     Te acordás del flaco Espineta 
__ 
   
_  1|--------0--------------0--------------0--------------0------------------------
_) 2|-----2-----2--------2-----2--------2-----2--------2-----2---------------------
   3|----2-2---2-2------2-2---2-2------1-1---1-1------1-1---1-1--------------------
_  4|------------------------------------------------------------------------------
_) 5|-0--------------0---------------0--------------0------------------------------
   6|------------------------------------------------------------------------------
__/
                   cuando cantaba, todas las hojas son del viento
__ 
   
_  1|---------0----------------0-----------------2---------------2-----------------
_) 2|-----2------2---------2-------2----------3------3-------3-------3-------------
   3|----0-0----0-0-------0-0-----0-0--------2-2----2-2-----2-2-----2-2------------
_  4|------------------2-------------------0--------------0------------------------
_) 5|--0---------------------------------------------------------------------------
   6|------------------------------------------------------------------------------
__/  
                         ahi toda nuestra filosofia 
__
   
_  1|---------1------------1---------------0---------------0-----------------------
_) 2|------3-----3------3-----3---------2------2--------2------2-------------------
   3|-----2-2---2-2----2-2---2-2-------2-2----2-2------2-2----2-2------------------
_  4|---0------------0-------------------------------------------------------------
_) 5|------------------------------0-----------------0-----------------------------
   6|------------------------------------------------------------------------------
__/  
                           era solo ser rockeros.
__
   
_  1|----------2-------------2-------------0--------------0----------2------0-------
_) 2|------3------3-------3-----3-------0------0-------2-----2------3------0--------
   3|-----2-2----2-2-----2-2---2-2-----1-1----1-1-----2-2---2-2----2------1---------
_  4|--0---------------0-------------------------------------------------2----------
_) 5|------------------------------2----------------0-------------------2-----------
   6|-------------------------------------------------------------------------------
__/

                    Pero como han cambiado los tiempos 
__ 
   
_  1|---------2------------2---------------4---------------4------------------------
_) 2|------3-----3------3-----3---------5-----5---------5-----5---------------------
   3|-----2-2---2-2----2-2---2-2-------6-6---6-6-------6-6---6-6--------------------
_  4|--0-------------0------------------------------6-------------------------------
_) 5|-------------------------------4-----------------------------------------------
   6|-------------------------------------------------------------------------------
__/
                  todos luchan por mantener sus puestos 
__ 
   
_  1|---------2------------2-------------4--------------4-----------4-------3------
_) 2|------2-----2------2-----2-------5-----5--------5-----5-------5-------4-------
   3|-----2-2---2-2----2-2---2-2-----6-6---6-6------6-6---6-6-----6-------5--------
_  4|----------------4---------------------------6---------------6-------5---------
_) 5|--4--------------------------4-----------------------------4-------3----------
   6|----------------------------------------------------------4-------X-----------
__/
                 hay muchos que ahora son Ingenieros 
__ 
   
_  1|---------2-------------2---------------1---------------0------------------------
_) 2|------3-----3-------3-----3---------3-----3---------2-----2---------------------
   3|-----4-4---4-4-----4-4---4-4-------2-2---2-2-------2-2---2-2--------------------
_  4|--------------------------------0----------------------------------------------
_) 5|--2-------------2-------------------------------0---------------------------------
   6|-------------------------------------------------------------------------------
__/
                 pero que pocos quedaron rockeros. 
__ 
   
_  1|---------2------------2---------------0---------------0------------------------
_) 2|------3-----3------3-----3---------0-----0---------2-----2---------------------
   3|-----2-2---2-2----2-2---2-2-------1-1---1-1-------2-2---2-2--------------------
_  4|--0-------------0--------------------------------------------------------------
_) 5|-------------------------------2----------------0-------------------------------
   6|-------------------------------------------------------------------------------
__/

                     Pero yo aun sigo cantando 
__ 
   
_  1|---------2------------2---------------4---------------4------------------------
_) 2|------3-----3------3-----3---------5-----5---------5-----5---------------------
   3|-----2-2---2-2----2-2---2-2-------6-6---6-6-------6-6---6-6--------------------
_  4|--0-------------0------------------------------6-------------------------------
_) 5|-------------------------------4-----------------------------------------------
   6|-------------------------------------------------------------------------------
__/
                     y lo voy a seguir haciendo  
__ 
   
_  1|---------2------------2-------------4--------------4-----------4-------3------
_) 2|------2-----2------2-----2-------5-----5--------5-----5-------5-------4-------
   3|-----2-2---2-2----2-2---2-2-----6-6---6-6------6-6---6-6-----6-------5--------
_  4|----------------4---------------------------6---------------6-------5---------
_) 5|--4--------------------------4-----------------------------4-------3----------
   6|----------------------------------------------------------4-------X-----------
__/
                     una leccion me dio la vida 
__ 
   
_  1|---------2-------------2---------------1---------------0----------------------
_) 2|------3-----3-------3-----3---------3-----3---------2-----2-------------------
   3|-----4-4---4-4-----4-4---4-4-------2-2---2-2-------2-2---2-2------------------
_  4|--------------------------------0---------------------------------------------
_) 5|--2-------------2-------------------------------0-----------------------------
   6|------------------------------------------------------------------------------
__/
                 tenés que hacer lo que el corazón diga. 
__ 
   
_  1|---------2------------2---------------0---------------2-----------------------
_) 2|------3-----3------3-----3---------0-----0---------3-----3--------------------
   3|-----2-2---2-2----2-2---2-2-------1-1---1-1-------2-2---2-2-------------------
_  4|--0-------------0-------------------------------0-----------------------------
_) 5|-------------------------------2----------------------------------------------
   6|------------------------------------------------------------------------------
__/
                    Y ayer quizas pensando en tu foto 
__ 
   
_  1|--------0--------------0--------------0--------------0------------------------
_) 2|-----2-----2--------2-----2--------2-----2--------2-----2---------------------
   3|----2-2---2-2------2-2---2-2------1-1---1-1------1-1---1-1--------------------
_  4|------------------------------------------------------------------------------
_) 5|-0--------------0---------------0--------------0------------------------------
   6|------------------------------------------------------------------------------
__/
                     por la calle te encontre andando 
__ 
   
_  1|---------0----------------0-----------------2---------------2-----------------
_) 2|-----2------2---------2-------2----------3------3-------3-------3-------------
   3|----0-0----0-0-------0-0-----0-0--------2-2----2-2-----2-2-----2-2------------
_  4|------------------2-------------------0--------------0------------------------
_) 5|--0---------------------------------------------------------------------------
   6|------------------------------------------------------------------------------
__/  
                     que poco ha cambiado nuestra onda
__
   
_  1|---------1------------1---------------0---------------0-----------------------
_) 2|------3-----3------3-----3---------2------2--------2------2-------------------
   3|-----2-2---2-2----2-2---2-2-------2-2----2-2------2-2----2-2------------------
_  4|---0------------0-------------------------------------------------------------
_) 5|------------------------------0-----------------0-----------------------------
   6|------------------------------------------------------------------------------
__/  
                 solo cambiaron un poco nuestros cuerpos. 
__
   
_  1|----------2-------------2-------------0--------------2-------------0----------
_) 2|------3------3-------3-----3-------0------0-------3-----3-------2-----2-------
   3|-----2-2----2-2-----2-2---2-2-----1-1----1-1-----2-2---2-2-----2-2---2-2------
_  4|--0---------------0----------------------------0------------------------------
_) 5|-------------------------------2----------------------------0-----------------
   6|------------------------------------------------------------------------------
__/
          
                    Espero que el tiempo ahora no borre 
__ 
   
_  1|---------2------------2---------------4---------------4------------------------
_) 2|------3-----3------3-----3---------5-----5---------5-----5---------------------
   3|-----2-2---2-2----2-2---2-2-------6-6---6-6-------6-6---6-6--------------------
_  4|--0-------------0------------------------------6-------------------------------
_) 5|-------------------------------4-----------------------------------------------
   6|-------------------------------------------------------------------------------
__/
                        a esa gente que tanto amo 
__ 
   
_  1|---------2------------2-------------4--------------4-----------4-------3------
_) 2|------2-----2------2-----2-------5-----5--------5-----5-------5-------4-------
   3|-----2-2---2-2----2-2---2-2-----6-6---6-6------6-6---6-6-----6-------5--------
_  4|----------------4---------------------------6---------------6-------5---------
_) 5|--4--------------------------4-----------------------------4-------3----------
   6|----------------------------------------------------------4-------X-----------
__/
                     por que sin ellos no valgo nada 
__ 
   
_  1|---------2-------------2---------------1---------------0----------------------
_) 2|------3-----3-------3-----3---------3-----3---------2-----2-------------------
   3|-----4-4---4-4-----4-4---4-4-------2-2---2-2-------2-2---2-2------------------
_  4|--------------------------------0---------------------------------------------
_) 5|--2-------------2-------------------------------0-----------------------------
   6|------------------------------------------------------------------------------
__/
                          su alma es mi alimento........
__ 
   
_  1|---------2------------2-------------0---------------2--------------2----------
_) 2|------3-----3------3-----3-------0-----0---------3-----3--------3-----3-------
   3|-----2-2---2-2----2-2---2-2-----1-1---1-1-------2-2---2-2------2-2---2-2------
_  4|--0-------------0----------------------------0--------------0-----------------
_) 5|-----------------------------2------------------------------------------------
   6|------------------------------------------------------------------------------
__/
.....................................................................................
 ESTO SE TOCA COMO FINAL :

__ 
   
_  1|---------0------------0-------------2---------------1--------------2----------
_) 2|------0-----0------1-----1-------3-----3---------3-----3--------3-----3-------
   3|-----1-1---1-1----0-0---0-0-----2-2---2-2-------3-3---3-3------4-4---4-4------
_  4|------------------------------0-----------------------------------------------
_) 5|--2-------------3----------------------------1--------------2-----------------
   6|------------------------------------------------------------------------------
__/


__ 
   
_  1|---------0------------2-------------0-----------0------2-------0--------------
_) 2|------0-----0------3-----3-------2-----2-------0------3-------2---------------
   3|-----1-1---1-1----2-2---2-2-----2-2---2-2-----1------2-------2----------------
_  4|----------------0----------------------------2------0-------------------------
_) 5|--2--------------------------0--------------2---------------------------------
   6|------------------------------------------------------------------------------
__/


Es larga la transcripción pero sencilla, practícala suena muy bien...


                     -----------------------------------
                    !                                   !
                    !  Dudas y/o consultas escribir a : !
                    !                                   !
                    !     [email protected]         !
                    !                                   !
                     -----------------------------------

Fuente original: LaCuerda
Colaborador original: berly amezquita cervantes [[email protected]]
Aviso: Este fichero es trabajo propio de su transcriptor y representa su interpretación personal de la canción. El material contenido en esta página es para exclusivo uso privado, por lo que se prohibe su reproducción o retransmisión, así como su uso para fines comerciales.

Califica esta canción


Comentarios en Facebook