Acordes y tablaturas para guitarra

Acordes y Tablaturas
Usuario: Password:

Buscar:
Acordes y Tablaturas >> Letra E >> Acordes de Enanitos verdes >> Amores lejanos
Bajo de Amores lejanos, Enanitos verdes

Amores lejanos

Enanitos verdes






G||-------------------|-----------------------|------------------------|
D||----2--------------|-----------------------|------------------------|
A||-------------------|--5--------------------|------------------------|
E||-------------------|---------5--8--8--7----|--5------5--8--8--7--5--|



------------------------|------------------------|------------------------|
------------------------|------------------------|------------------------|
------------------------|------------------------|--5---------------------|
--5------5--8--8--7--5--|--5------5--8--8--7--5--|---------5--8--8--7--5--|



------------------------|------------------------|------------------------|
------------------------|------------------------|------------------------|
------------------------|------------------------|------------------------|
--5------5--8--8--7--5--|--5------5--8--8--7--5--|--x--3--x--x--3--x------|



----------------------|----------------------|---------------------|
----------------------|----------------------|---------------------|
--5------5--5----5----|--5------5--5----5----|---------------------|
----------------------|----------------------|--5------5--5--------|



---------------------|----------------------|----------------------|
---------------------|----------------------|----------------------|
---------------------|--5------5--5----5----|--5------5--5----3----|
--5------5--5--------|----------------------|----------------------|



---------------------|---------------------|----------------------|
---------------------|---------------------|----------------------|
---------------------|---------------------|--5------5--5----5----|
--5------5--5--------|--3------3--3--------|----------------------|



----------------------|---------------------|---------------------|
----------------------|---------------------|---------------------|
--5------5--5----5----|---------------------|---------------------|
----------------------|--5------5--5--------|--5------5--5--------|



----------------------|----------------------|---------------------|
----------------------|----------------------|---------------------|
--5------5--5----5----|--5------5--5----3----|---------------------|
----------------------|----------------------|--5------5--5--------|



---------------------|---------------------|---------------------|
---------------------|---------------------|---------------------|
---------------------|---------------------|---------------------|
--3------3--3--------|--0------0--0--------|--1------1--1--------|



---------------------|---------------------|---------------------|
---------------------|---------------------|---------------------|
---------------------|---------------------|---------------------|
--3------3--3--------|--5------5--5--------|--5------5--5--------|



---------------------|---------------------|---------------------|
---------------------|---------------------|---------------------|
---------------------|---------------------|---------------------|
--1------1--1--------|--3------3--3--------|--5------5--5--------|



---------------------|---------------------|---------------------|
---------------------|---------------------|---------------------|
---------------------|---------------------|---------------------|
--5------5--5--------|--1------1--1--------|--3------3--3--------|



---------------------|---------------------|---------------------|
---------------------|---------------------|---------------------|
---------------------|---------------------|---------------------|
--5------5--5--------|--5------5--5--------|--1------1--1--------|



---------------------|---------------------|---------------------|
---------------------|---------------------|---------------------|
---------------------|---------------------|---------------------|
--3------3--3--------|--5------5--5--------|--5------5--5--------|



-----------------------|------------------------|------------------------|
-----------------------|------------------------|------------------------|
--5--------------------|------------------------|------------------------|
---------5--8--8--7----|--5------5--8--8--7--5--|--5------5--8--8--7--5--|



------------------------|------------------------|------------------------|
------------------------|------------------------|------------------------|
------------------------|--5---------------------|------------------------|
--5------5--8--8--7--5--|---------5--8--8--7--5--|--5------5--8--8--7--5--|



------------------------|------------------------|----------------------|
------------------------|------------------------|----------------------|
------------------------|------------------------|--5------5--5----5----|
--5------5--8--8--7--5--|--x--3--x--x--3--x------|----------------------|



----------------------|---------------------|---------------------|
----------------------|---------------------|---------------------|
--5------5--5----5----|---------------------|---------------------|
----------------------|--5------5--5--------|--5------5--5--------|



----------------------|----------------------|---------------------|
----------------------|----------------------|---------------------|
--5------5--5----5----|--5------5--5----3----|---------------------|
----------------------|----------------------|--5------5--5--------|



---------------------|----------------------|----------------------|
---------------------|----------------------|----------------------|
---------------------|--5------5--5----5----|--5------5--5----5----|
--3------3--3--------|----------------------|----------------------|



---------------------|---------------------|----------------------|
---------------------|---------------------|----------------------|
---------------------|---------------------|--5------5--5----5----|
--5------5--5--------|--5------5--5--------|----------------------|



----------------------|---------------------|---------------------|
----------------------|---------------------|---------------------|
--5------5--5----3----|---------------------|---------------------|
----------------------|--5------5--5--------|--3------3--3--------|



---------------------|---------------------|---------------------|
---------------------|---------------------|---------------------|
---------------------|---------------------|---------------------|
--0------0--0--------|--1------1--1--------|--3------3--3--------|



---------------------|---------------------|---------------------|
---------------------|---------------------|---------------------|
---------------------|---------------------|---------------------|
--5------5--5--------|--5------5--5--------|--1------1--1--------|



---------------------|---------------------|---------------------|
---------------------|---------------------|---------------------|
---------------------|---------------------|---------------------|
--3------3--3--------|--5------5--5--------|--5------5--5--------|



---------------------|---------------------|---------------------|
---------------------|---------------------|---------------------|
---------------------|---------------------|---------------------|
--1------1--1--------|--3------3--3--------|--5------5--5--------|



---------------------|---------------------|---------------------|
---------------------|---------------------|---------------------|
---------------------|---------------------|---------------------|
--5------5--5--------|--1------1--1--------|--3------3--3--------|



---------------------|---------------------|-----------------------|
---------------------|---------------------|-----------------------|
---------------------|---------------------|--5--------------------|
--5------5--5--------|--5------5--5--------|---------5--8--8--7----|



------------------------|------------------------|------------------------|
------------------------|------------------------|------------------------|
------------------------|------------------------|------------------------|
--5------5--8--8--7--5--|--5------5--8--8--7--5--|--5------5--8--8--7--5--|



------------------------|------------------------|------------------------|
------------------------|------------------------|------------------------|
--5---------------------|------------------------|------------------------|
---------5--8--8--7--5--|--5------5--8--8--7--5--|--5------5--8--8--7--5--|



------------------------|-----------------------|------------------------|
------------------------|-----------------------|------------------------|
------------------------|--5--------------------|------------------------|
--x--3--x--x--3--x------|---------5--8--8--7----|--5------5--8--8--7--5--|



------------------------|------------------------|------------------------|
------------------------|------------------------|------------------------|
------------------------|------------------------|--5---------------------|
--5------5--8--8--7--5--|--5------5--8--8--7--5--|---------5--8--8--7--5--|



------------------------|------------------------|------------------------|
------------------------|------------------------|------------------------|
------------------------|------------------------|------------------------|
--5------5--8--8--7--5--|--5------5--8--8--7--5--|--x--3--x--x--3--x------|



---------------------|---------------------|---------------------|
---------------------|---------------------|---------------------|
---------------------|---------------------|---------------------|
--1------1--1--------|--3------3--3--------|--5------5--5--------|



---------------------|---------------------|---------------------|
---------------------|---------------------|---------------------|
---------------------|---------------------|---------------------|
--5------5--5--------|--1------1--1--------|--3------3--3--------|



---------------------|---------------------|---------------------|
---------------------|---------------------|---------------------|
---------------------|---------------------|---------------------|
--5------5--5--------|--5------5--5--------|--1------1--1--------|



---------------------|---------------------|---------------------|
---------------------|---------------------|---------------------|
---------------------|---------------------|---------------------|
--3------3--3--------|--5------5--5--------|--5------5--5--------|



---------------------|---------------------|---------------------|
---------------------|---------------------|---------------------|
---------------------|---------------------|---------------------|
--1------1--1--------|--3------3--3--------|--5------5--5--------|



---------------------|---------------------|---------------------|
---------------------|---------------------|---------------------|
---------------------|--5------5--5--------|--5------5--5--------|
--5------5--5--------|---------------------|---------------------|



---------------------|---------------------|---------------------|
---------------------|---------------------|---------------------|
---------------------|---------------------|--5------5--5--------|
--5------5--5--------|--5------5--5--------|---------------------|



---------------------|---------------------|---------------------|
---------------------|---------------------|---------------------|
--5------5--5--------|---------------------|---------------------|
---------------------|--5------5--5--------|--5------5--5--------|



------------------------|------------------------|------------------------|
------------------------|------------------------|------------------------|
--5---------------------|------------------------|------------------------|
---------5--8--8--7--5--|--5------5--8--8--7--5--|--5------5--8--8--7--5--|



------------------------|---------------------|---------------------|
------------------------|---------------------|---------------------|
------------------------|---------------------|---------------------|
--x--3--x--x--3--x------|--1------1--1--------|--3------3--3--------|



---------------------|---------------------|---------------------|
---------------------|---------------------|---------------------|
---------------------|---------------------|---------------------|
--5------5--5--------|--5------5--5--------|--1------1--1--------|



---------------------|---------------------|---------------------|
---------------------|---------------------|---------------------|
---------------------|---------------------|---------------------|
--3------3--3--------|--5------5--5--------|--5------5--5--------|



---------------------|---------------------|---------------------|
---------------------|---------------------|---------------------|
---------------------|---------------------|---------------------|
--1------1--1--------|--3------3--3--------|--5------5--5--------|



---------------------|---------------------|-------------------|
---------------------|---------------------|-------------------|
---------------------|---------------------|-------------------|
--5------5--5--------|--1------1--1--------|--3----------------|



------------------|----|------|------|------|------||
------------------|----|------|------|------|------||
------------------|----|------|------|------|------||
------------------|----|------|------|------|------||

Fuente original: LaCuerda
Colaborador original: Cabrera Pablo [[email protected]]

Que te parecio? Calificalo con estrellas!!

Rating: 3.6/10 (19 votos)

Este fichero es trabajo propio de su transcriptor y representa su interpretación personal de la canción. El material contenido en esta página es para exclusivo uso privado, por lo que se prohibe su reproducción o retransmisión, así como su uso para fines comerciales.


Deja tus comentarios:

Letras de Enanitos verdes
Letras de canciones | Musica Independiente