Patricio Rey Y Sus Redonditos De Ricota, Criminal Mambo

Imprimir
Intro x4:
Riff 1 
|----------------------------------------------
|----------------------------------------------
|----------------------------------------------
|----------------------------------------------
|------8----7----5-7--------8----7----5-7
|-0-0-6-0-5-0-3-5---0-0-6-0-5-0-3-5

Guitarra 1
|------------------------------------
|------------------------------------
|------------------------------------
|------------------------------------
|-3-3-3-3-3-3-3-3-3-3-3-3--
|-1-1-1-1-1-1-1-1-1-1-1-1--

Guitarra 2
|------------------------------------------
|------------5~---------5~--------5~--
|------------5~---------5~--------5~--
|------------3~---------3~--------3~--
|------------------------------------------
|------------------------------------------

riff 1 (x4)

|------------------------------------
|------------------------------------
|------------------------------------
|------------------------------------
|-3-3-3-3-3-3-3-3-3-3-3-3--
|-1-1-1-1-1-1-1-1-1-1-1-1--

Es un criminal mambo (x4)

riff 1 (x4)

  F                                   B
|------------------------------------
|------------------------------------
|------------------------------------
|--------------------------------4---
|-3-3-3-----3-3-3-------3--2---
|-1-1-1-----1-1-1-------1-------

F                                             B
Criminal criminal  mam--bo  (x4) 

  C                              F# 
|--------------------------------
|---------------------------------
|-----------------------------6--
|-5-5-5-----5-5-5----5--4--
|-3-3-3-----3-3-3----3------
|---------------------------------

C                                            F#
Criminal criminal  mam--bo  (x4)

 C           F#
|----------------
|----------------
|----------6----
|-5-------4----
|-3-------------
|----------------

C               F#
Mam------bo  (x2)  

Riff 1 (x38)

  F                                   B
|------------------------------------
|------------------------------------
|------------------------------------
|--------------------------------4---
|-3-3-3-----3-3-3-------3--2---
|-1-1-1-----1-1-1-------1-------

F                                             B
Criminal criminal  mam--bo  (x4)

  C                              F# 
|--------------------------------
|---------------------------------
|-----------------------------6--
|-5-5-5-----5-5-5----5--4--
|-3-3-3-----3-3-3----3------
|---------------------------------

C                                            F#
Criminal criminal  mam--bo  (x4)

 C           F#                      Fin
|----------------               |----------
|----------------               |----------
|----------6----    (x7)    |---5~----
|-5-------4----               |---5~-----
|-3-------------               |---3~-----
|----------------               |-----------


Criminal     criminal     criminal
Aviso: Este fichero es trabajo propio de su transcriptor y representa su interpretación personal de la canción. El material contenido en esta página es para exclusivo uso privado, por lo que se prohibe su reproducción o retransmisión, así como su uso para fines comerciales.

Califica esta canción


Comentarios en Facebook