Enviado por:
ivanortiz0








No Te Va A Gustar, Cero

Imprimir
Intro
e|--------------------------------|
B|--------------------------------|
G|--------------------------------|
D|--------------------------------|
A|-------2-----------2/4-2--------|
E|-0-5-4---5-4-2-4-5-------5-4-0--|

Riff 1
e|--------------------------------------|
B|--------------------------------------|
G|-----1--------------------------------|
D|-2-4-----2-4-2-1-1-2---1-2-2/6-4-2-1--|
A|-------2-------------4----------------|
E|--------------------------------------|
Aviso: Este fichero es trabajo propio de su transcriptor y representa su interpretación personal de la canción. El material contenido en esta página es para exclusivo uso privado, por lo que se prohibe su reproducción o retransmisión, así como su uso para fines comerciales.

Califica esta canción


Comentarios en Facebook