Enviado por:
anonimo

Soda Stereo, Dietetico

Imprimir
INTRO Guitarra


G-----------------
D-----------------       (x4)
A--5-53--------3--
E--------5-2-5----

Dietéticoooo...dietéticoooo

G-----------------
D-----------------       (x4)
A--5-53--------3--
E--------5-2-5----


Verso I
                                                S  P S  P
G--------------------------------------------------5----6-
D-------------------------5-------------------------------
A----------------------------7~-------------2~--3----4----
E--3~--3-5-5-0-3~--3-5-5--------0~--3-5-5-0---------------

Dietéticoooo...dietéticoooo

G-----------------
D-----------------       (x4)
A--5-53--------3--
E--------5-2-5----

Verso II
                                                 S  P S  P
G---------------------------------------------------5----6-
D-----5----------------------2-2-2-------------------------
A--------------------------------------------2~--3----4----
E--3~---3-5-5-0-3~--3-5-5-0---------3-5-5-0----------------

Dietéticoooo...dietéticoooo

G-----------------
D-----------------       (x4)
A--5-53--------3--
E--------5-2-5----

Verso III
                                                          S  P S P
G---------------------------------------------------4-4-4----5---6-
D--5~-5~----------------5~------5----------------------------------
A----------------------------------7~------------2~-------3----4---
E--------3~--3-5-5-0-3~----3-5--------0~--5-5-0--------------------

Dietéticoooo...dietéticoooo

G-----------------
D-----------------       (x4)
A--5-53--------3--
E--------5-2-5----

Verso IV
                                                     S  P S  P
G-----------------------------------9s------------------5----6-
D-5~-----------------------5-----------------------------------
A-----------------------------7~-----------------2~--3----4----
E----3~--3-5-5-0-3~---3-5--------0~-----3-5-5-0----------------

Dietéticoooo...dietéticoooo

G-----------------
D-----------------       (x24)
A--5-53--------3--
E--------5-2-5----


Puente
G---------------------
D---------------------
A--10~~-12~~-14~~15~~-
E---------------------

G-----------------
D-----------------       (x2)
A--5-53--------3--
E--------5-2-5----

El régimen se acabó, se acaboooooo

G-----------------------------
D--5-555--7-7-7---------------
A----------------2-222--3-3-3-
E-----------------------------

G-----------------
D-----------------       (x2)
A--5-53--------3--
E--------5-2-5----

                        S  P S  P
G--------------------------5----6-
D--5-555--7-7-7-------------------
A----------------2-222--3----4----
E---------------------------------

G-----------------
D-----------------       (x2)
A--5-53--------3--
E--------5-2-5----

                        S  P S  P
G--------------------------5----6-
D--5-555--7-7-7-------------------
A----------------2-222--3----4----
E---------------------------------

G-----------------
D-----------------       (x2)
A--5-53--------3--
E--------5-2-5----

G----------------------
D-------------2~2------
A--3~-3-2~-2-----------
E------------------3---

G-----------------
D-----------------       (x2)
A--5-53--------3--
E--------5-2-5----


G--------------------------------
D---5-555--7-777-9-999-10-101010-
A--------------------------------
E--------------------------------

G-----------------
D-----------------       (x8)
A--5-53--------3--
E--------5-2-5----

FINAL

G-----------------
D-----------------       (x2)
A--5-53--------3--
E--------5-2-5----

G----------------------------------------------------------------
D----------------------------------------------------------------
A--3--------3----5-53--------3----3---------3--5-53-------3--3~~-
E-----5-2-5------------5-2-5---------5-2-5----------5-2-5--------


Parece que me quedó mejor de lo que esperaba, hay que escuchar el
tema para sacar bien los tiempos.
Gracias y salu2

ADRIAN DE LUCA
[email protected]
Aviso: Este fichero es trabajo propio de su transcriptor y representa su interpretación personal de la canción. El material contenido en esta página es para exclusivo uso privado, por lo que se prohibe su reproducción o retransmisión, así como su uso para fines comerciales.

Califica esta canción


Comentarios en Facebook