Enviado por:
anonimo

Enanitos Verdes, Dale Pascual

Imprimir
manuel leon
empieza la guitarra primero luego entras vos con la bateria


intro

g-----------------------------------------------
d-----------------------------------------------
a------5-5-5-5-5-----5-5-5-5-5-----5-5-5-5-5----
e--5-5-----------5-5-----------5-5------------5-


versos


cada vez me cuesta mas......

g--------------------------------
d--------------------------------
a------5-5-5-5-5-----5-5-5-5-5---
e--5-5-----------5-5-------------



precoro

y si caes en prision .......


--------------------------------------------
--------------------------------------------
--2-2-2-2-2-5-5-5-5-5-2-2-2-2-2-5-5-5-5-5---
--------------------------------------------


--------------------------------------------
--------------------------------------------
--2-2-2-2-2-5-5-5-5-5-----------------------
----------------------5-5-5-5-5-2-2-2-2-2---


coro


trabajar como negro.......


g--------------------------------
d--------------------------------
a------5-5-5-5-5-----5-5-5-5-5---
e--5-5-----------5-5-------------



solo

en el solo de guitarra toca esto


-------------------------------------
-------------------------------------
-------------------------------------   (x4)
--2-2-2-2-0-0-0-0-2-2-2-2-0-0-0-0----


versos
precoro
coro
solo
coro (hasta el final)
Aviso: Este fichero es trabajo propio de su transcriptor y representa su interpretación personal de la canción. El material contenido en esta página es para exclusivo uso privado, por lo que se prohibe su reproducción o retransmisión, así como su uso para fines comerciales.

Califica esta canción


Comentarios en Facebook