Enviado por:
anonimo

Andrés Calamaro, Amor Iraní

Intro: [F - Am - G - F - Em - G]X4   Queda en F Y Em7/G


Em Bm7        Bb7   Am7  C  Bm7  Bb7 
Pasado tanto tiempo en Irán
Am7          C    Bm7 Bb7 
ya me acostumbre
Am7       C   Bm7  Bb7      Am7  G
al Ayatolah.-

Em
Y hoy vuelvo al mundo libre occidental
extraño el corán,
me hice musulmán.-


Intro

C         D         G      G7
Y ahora estoy en Argelia
C     D      B
lejos de Teherán
C      D          G    D/F#  Em  Em/D
dejo alli tras un velo a mi amor
      C         D    G     G7
nos separa una eternidad.
C      D          G   D/F#  Em  Em/D
Dejo alli tras un velo a mi amor
      C         D    G
nos separa una eternidad.


Intro


1--------------------------------------------------------
2-------------------------------------------------------
3-----0-2-2-0-2-----0-2-2-0---5-5-4-0-2-2-0-2----0-----
4-0-2-------------0-2---------2------------------0-2--2-0   x3
5-------------------------------------------------------
6-------------------------------------------------------



1------------------------------------------------------
2-----------------------------------------------------
3-----------0-------------------------- Final de Riff
4-----0-2------2-2-0-2--------------------------------
5------------------------------------------------------
6-----------------------------------------------------


A LOS QUE LO SOLICITARON, THANKS!
Aviso: Este fichero es trabajo propio de su transcriptor y representa su interpretación personal de la canción. El material contenido en esta página es para exclusivo uso privado, por lo que se prohibe su reproducción o retransmisión, así como su uso para fines comerciales.

Califica esta canción


Comentarios en Facebook