Acordes y tablaturas para guitarra

Acordes y Tablaturas
Usuario: Password:

Buscar:
Acordes y Tablaturas >> Letra E >> Acordes de Elefante >> Mentirosa
Tablatura de Mentirosa, Elefante

Mentirosa

Elefante






HOLA A TODA LA RAZA, ESTE ES EL BUENAS, AHORA SI YA ESTA LISTA TODA LA CANCION DE ELEFANTE
DEDICADA A TODAS LAS MENTIROSAS, YA QUE SIN ELLAS NO ESTUVIERAMOS..... LES SUGIERO QUE AL MOMENTO
DE TOCARLA LO HAGAN OYENDO LA CANCION PARA QUE SE FIJEN BIEN EN LOS TIEMPOS
POR LO GENERAL LOS REQUINTOS, BAJEO Y EL SOLO SON RAPIDOS
Intro

E/-------------------------------I
B/-------------------------------I
G/-------------------------------I    x4 las primeras dos partes son sin acompañamiento despues va con C#m
D/---4--2---------4--4--2-----2--I
A/---------4--4------------4-----I
E/-------------------------------I


E/----------------------------------I
B/----------------------------------I
G/----------------------------------I
D/-----2--4--4/5--4--2--------2-----I
A/--4-------------------4--2-----4--I
E/----------------------------------I

**VERSO 1
                  C#m                           B
Que le vamos a hacer,           si la vida es asi
E/-----------------4------4--I-----------------7----7-----7---I
B/----------------5-----5----I----------------7----7--7-------I
G/---------------6----6------I---------------8----8-----8-----I
D/--------------6------------I--------------9-----------------I
A/-------------4-------------I-------------9------------------I
E/------------4--------------I------------7-------------------I

        A                        Ab
le aposte todo a tus besos y asi todo o perdi
E/------5------5----------I-------4----4---------I
B/-----5-----5------------I------4----4--4-------I
G/----6----6--------------I-----5----5-----------I
D/---7--------------------I----6-----------------I
A/--7---------------------I---6------------------I
E/-5----------------------I--4-------------------I


              C#m                  B
no me pidas perdon que ni tu te lo crees
E/------------4------4--I----------7----7-----7---I
B/-----------5-----5----I---------7----7--7-------I
G/----------6----6------I--------8----8-----8-----I
D/---------6------------I-------9-----------------I
A/--------4-------------I------9------------------I
E/-------4--------------I-----7-------------------I

       A                        Ab
  esas lagrimas son falsas como falso fue tu amor
E/------5------5--------I-------4----4---------I
B/-----5-----5----------I------4----4--4-------I
G/----6----6------------I-----5----5-----------I
D/---7------------------I----6-----------------I
A/--7-------------------I---6------------------I
E/-5--------------------I--4-------------------I

**VERSO 2
    B                             C#m
    Pero no me digas nada que el tonto he sido yo
E/-------------------------------------------------------------I
B/-------------------------------------------------------------I
G/-------------------------------------------------------------I    este arreglo se toca
D/-------1-4-------1-4---------2-6-------2-6------2-4-------2--I	   el el siguiente verso
A/--2-2------2-2-2-------2s4-4-----4-4-4------0-0-----0-0-0----I
E/-------------------------------------------------------------I

           A                         E
    si la luna no es de queso ni la nubes de algodon
E/-------------------------------------------------------------I
B/-------------------------------------------------------------I
G/-------------------------------------------------------------I    este arreglo se toca
D/-------1-4-------1-4---------2-6-------2-6------2-4-------2--I	   el el siguiente verso
A/--2-2------2-2-2-------2s4-4-----4-4-4------0-0-----0-0-0----I
E/-------------------------------------------------------------I


**CORO

E/----7--7--7--7------4--4--4--4-------------------------I
B/----7--7--7--7------5--5--5--5-------------------------I
G/----8--8--8--8------6--6--6--6-------------------------Irasgueo hacia abajo
D/----9--9--9--9------6--6--6--6-------------------------I       de la electrica
A/----9--9--9--9------4--4--4--4-------------------------I
E/----7--7--7--7------4--4--4--4-------------------------I
      Mentirosa,      Traicionera

E/----5--5--5--5-------------7--7--7--7-------------------I
B/----5--5--5--5-------------7--7--7--7-------------------I
G/----6--6--6--6-------------9--9--9--9-------------------I
D/----7--7--7--7-------------9--9--9--9-------------------I
A/----7--7--7--7-------------7--7--7--7-------------------I
E/----5--5--5--5-------------7--7--7--7-------------------I
 y yo que daba por ti    la vida entera

E/----7--7--7--7-------4--4--4--4-------------------------I
B/----7--7--7--7-------5--5--5--5-------------------------I
G/----8--8--8--8-------6--6--6--6-------------------------Irasgueo hacia abajo
D/----9--9--9--9-------6--6--6--6-------------------------I       de la electrica
A/----9--9--9--9-------4--4--4--4-------------------------I
E/----7--7--7--7-------4--4--4--4-------------------------I
      Mentirosa,        embustera
                                               Ab
E/----5--5--5--5---------7--7--7--7-----I-------4-------I
B/----5--5--5--5---------7--7--7--7-----I-------4-------I
G/----6--6--6--6---------9--9--9--9-----I-------5-------I
D/----7--7--7--7---------9--9--9--9-----I-------6-------I
A/----7--7--7--7---------7--7--7--7-----I-------6-------I
E/----5--5--5--5---------7--7--7--7-----I-------4-------I             C#m
      basta ya de        tanto ruido                  este cuento se acabo           A         Ab
            A         Ab
aah aah ah aah aah ah ah...

REQUINTO 1
E/----------------3--3/5--3-------------------------------I
B/----------3--5-----------------5--3--3/5----------------I
G/----3--5------------------------------------------------I
D/--------------------------------------------------------I
A/--------------------------------------------------------I
E/--------------------------------------------------------I
            A         Ab
aah aah ah aah aah ah ah...


*sigue el mismo patron de notas CON EL ARPEGIO DEL VERSO 1*

Para que decir mas, si todo termino
todo lo que sube baja, todo lo que viene va
no me pidas perdon que ni tu te lo crees
vete por donde llegaste y ojala te vaya bien

    B                             C#m
    Pero no me digas nada que el tonto he sido yo
E/-------------------------------------------------------------I
B/-------------------------------------------------------------I
G/-------------------------------------------------------------I    este arreglo se toca
D/-------1-4-------1-4---------2-6-------2-6------2-4-------2--I	   el el siguiente verso
A/--2-2------2-2-2-------2s4-4-----4-4-4------0-0-----0-0-0----I
E/-------------------------------------------------------------I
           A                         E
    si la luna no es de queso ni la nubes de algodon
E/-------------------------------------------------------------I
B/-------------------------------------------------------------I
G/-------------------------------------------------------------I    este arreglo se toca
D/-------1-4-------1-4---------2-6-------2-6------2-4-------2--I	   el el siguiente verso
A/--2-2------2-2-2-------2s4-4-----4-4-4------0-0-----0-0-0----I
E/-------------------------------------------------------------
       B                         C#m
Para que seguir con cuentos, con amores de ficcion
                                                  E/----5--3---------------------I
                                                  B/----------5--3--3/5--3-------I
                                                  G/------------------------5----I
                                                  D/-----------------------------I
                                                  A/-----------------------------I
       A                            Ab            E/-----------------------------I
si tu boca no es de fresa ni en tus ojos sale el sol

** CORO
E/----7--7--7--7------4--4--4--4-------------------------I
B/----7--7--7--7------5--5--5--5-------------------------I
G/----8--8--8--8------6--6--6--6-------------------------Irasgueo hacia abajo
D/----9--9--9--9------6--6--6--6-------------------------I       de la electrica
A/----9--9--9--9------4--4--4--4-------------------------I
E/----7--7--7--7------4--4--4--4-------------------------I
      Mentirosa,      Traicionera

E/---------5--5--5--5---------7--7--7--7-------------------I
B/---------5--5--5--5---------7--7--7--7-------------------I
G/---------6--6--6--6---------9--9--9--9-------------------I
D/---------7--7--7--7---------9--9--9--9-------------------I
A/---------7--7--7--7---------7--7--7--7-------------------I
E/---------5--5--5--5---------7--7--7--7-------------------I
 y yo que daba por ti      la vida entera
                                          E/----------------------------------------------------------I
                                          B/----------------------------------------------------------I
                                          G/--11-11-11--9-9-9--8-8-8----8/13-13-13--11-11-11--9-9-9---I
                                          D/----------------------------------------------------------I
                                          A/----------------------------------------------------------I
                                          E/----------------------------------------------------------I


E/----7--7--7--7-------4--4--4--4-------------------------I
B/----7--7--7--7-------5--5--5--5-------------------------I
G/----8--8--8--8-------6--6--6--6-------------------------Irasgueo hacia abajo
D/----9--9--9--9-------6--6--6--6-------------------------I       de la electrica
A/----9--9--9--9-------4--4--4--4-------------------------I
E/----7--7--7--7-------4--4--4--4-------------------------I
      Mentirosa,        embustera
                                               Ab
E/----5--5--5--5---------7--7--7--7-----I-------4-------I
B/----5--5--5--5---------7--7--7--7-----I-------4-------I
G/----6--6--6--6---------9--9--9--9-----I-------5-------I
D/----7--7--7--7---------9--9--9--9-----I-------6-------I
A/----7--7--7--7---------7--7--7--7-----I-------6-------I
E/----5--5--5--5---------7--7--7--7-----I-------4-------I             C#m
      basta ya de        tanto ruido                 este cuento se acabo
            A         Ab
aah aah ah aah aah ah ah...

REQUINTO 4
E/----------------3--5--3-----3-------------------I-5--3---------------------------I
B/----------3--5-----------5-----5--3-------------I-------5--3--3/5--3--5--3-------I
G/----3--5-----------------------------5----------I---------------------------5----I
D/------------------------------------------------I--------------------------------I
A/------------------------------------------------I--------------------------------I
E/------------------------------------------------I--------------------------------I

BAJEO DE ACUSTICA
E/------------------------------------------------I
B/------------------------------------------------I
G/------------------------------------------------I
D/--------------1--3--1-----1---------------------I
A/--------1--3-----------3-----3--1---------------I
E/--1--3-----------------------------3------------I

Solo GUITARRA ELECTRICA

E/----/9-9-9-9-9-9-9-9P7-7-7-7-7-7--5-5-5-5-5-5--4-4-5-5-4-4-5-5---5-4-2
B/----/9-9-9-9-9-9-9-9-9-9-9-9-9-9--5-5-5-5-5-5--5-5-5-5-5-5-5-5--------
G/----------------------------------------------------------------------
D/----------------------------------------------------------------------
A/----------------------------------------------------------------------
E/----------------------------------------------------------------------

--------------------------------------4-4-5-5-4-4-4-5-5-4-4-4--I
-5-5/7-777--555--44--22--22--4--4/5---5-5-5-5-5-5-5-5-5-5-5-5--I
---------------------------------------------------------------I
---------------------------------------------------------------I
---------------------------------------------------------------I
---------------------------------------------------------------I


IGUAL QUE LOS COROS ANTERIORES
Mentirosa,     traicionera
E/------7---I
B/------7---I
G/------7---I
y yo que daba por ti la vida entera
Mentirosa, embustera
yo contigo no regreso
que me muera, no no

Mentirosa, traicionera
y yo que daba por ti la vida entera
Mentirosa, embustera
basta ya de tanto ruido
este cuento se acabo

REQUINTO DEL FINAL
E/---------------3--5--3--------------------------I
B/---------3--5-----------5-----------------------I
G/---3--5-----------------------------------------I
D/------------------------------------------------I
A/------------------------------------------------I
E/------------------------------------------------I


  C#m=446654
    B=799877
    A=577655
Ab/G#=466544
    E=779977

SALUDOS A LOS BROTHERS (ALEX, BOBBY, BETO, DIEGO) Y A LAS
COMADRES (SANDRA, ANA, MAGO, ANGI, YAZMIN) Y POR SUPUESTO
A MI FUENTE DE INSPIRACION A TI CHAPARRITA... TE AMOOOOOOOOOOOOO.
DEL 4º H DEL CBTIS 108
DUDAS, PETICIONES O COMENTARIOS ESCRIBIR A [email protected]

Fuente original: LaCuerda
Colaborador original: luis ivan blanco najera [[email protected]]

Que te parecio? Calificalo con estrellas!!

Rating: 6.3/10 (77 votos)

Este fichero es trabajo propio de su transcriptor y representa su interpretación personal de la canción. El material contenido en esta página es para exclusivo uso privado, por lo que se prohibe su reproducción o retransmisión, así como su uso para fines comerciales.


Deja tus comentarios:

Letras de Elefante
Letras de canciones | Musica Independiente