Enviado por:
anonimo

Hernan Figueroa Reyes, Chacarera Del Bonito

Introducción: acompañar con Am Am E7 Am
6|------------------------------|
5|-0-3----0-3----0-3-----3-2-0--|
4|-----2------2------2-0--------|
3|------------------------------| x2
2|------------------------------|
1|------------------------------|

Interludio: acompañar con Am Am E7 Am
6|-----------------------------|----------------------------------|
5|-----------------------------|----------------------------------|
4|-----------------------------|----------------------------------|
3|-2------2------2-------5-4-2-|-2-------2--------2--------5-4-2--|
2|---1/5----1/5----1/5-3-------|---1/5-5----1/5-5----1/5-3--------|
1|-----------------------------|----------------------------------|

I
Introducción

    Am                 E7
Un viejo me dio un consejo
               Am
para poder merecer:
    Dm                Am
dar una vuelta a la plaza
             E7    Am
y antes del anochecer.

Interludio

Pasaron vueltas y vueltas,
varios días y hasta un mes,
ocho pares de alpargatas
pero ninguna mujer.

Introducción

Ya me dicen crinas de oro,
velay! que desfachatez,
se asustan de verme solo
si eso ya es testarudez.

Estribillo
   G7           C
A los que les fieros
   G7              C
no se dejen convencer,
   Dm                Am
macanas de los cristianos
           E7        Am
distintas formas de ver.

II
Introducción

Por eso yo vivo solo,
soltero y sin un querer,
los vasos son mis amores
y el boliche es mi mujer.

Interludio

Mentiras que soy tan fiero
envidia me han de tener,
basta que uno se destaque
pa' que lo quieran barrer.

Introducción

Mentiras que soy tan fiero
que no consigo mujer,
las causas yo las conozco
son epocas de escasez.

Estribillo
Aviso: Este fichero es trabajo propio de su transcriptor y representa su interpretación personal de la canción. El material contenido en esta página es para exclusivo uso privado, por lo que se prohibe su reproducción o retransmisión, así como su uso para fines comerciales.

Califica esta canción


Comentarios en Facebook