Las Pastillas Del Abuelo, Duda

Imprimir
Hola, aca les dejo lo q calculo q es el punteo completo de la cancion.

acomode partes de la letra para q se entienda donde va cada punteo


E/-----------------------------------------------------|
B/--4h5p4p0-------5p4-4/7------------------------------|
G/---------2~---------------4----2p1-2p1--1---2-1------|
D/-----------------------------------------------4-2---|
A/-----------------------------------------------------|
E/-----------------------------------------------------|

E/----------------------------------12-7----------------(12)--|
B/--4h5p4p0-------5p4-4/7-7/9-7----------9-5~-0---------------|
G/---------2~-------------------9~--------------1-2~-(4)------|
D/------------------------------------------------------------|
A/------------------------------------------------------------|
E/------------------------------------------------------------|

Nose si el tiempo es propio

de nuestra conciencia

nose si existe de verdad

nose quien pueda comprobar

E/--------------------12~--------17~-19~--12~---------|
B/----------7h9-10~--12~------------------------------|
G/----------------------------------------------------|
D/----------------------------------------------------|
A/----------------------------------------------------|
E/----------------------------------------------------|

si todo es una foto

o va al ritmo de un tic tac

o va al ritmo de un tic tac

E/-----------------------------------------------------|
B/--4h5p4p0--------------------------------------------|
G/---------2-------------------------------------------|
D/-----------------------------------------------------|
A/-----------------------------------------------------|
E/-----------------------------------------------------|

....se que no es irreversible este proceso

pero no quiero que vaya hacia atras

E/-----------------------------------------------------|
B/--4h5p4p0-------5p4-4/7------------------------------|
G/---------2---------------4----2p1-2p1--1---2-1-------|
D/-----------------------------------------------4-2---|
A/-----------------------------------------------------|
E/-----------------------------------------------------|

E/----------------------------------12-7---------------[12]-|
B/--4h5p4p0-------5p4-4/7-7/9-7----------9-5-0--------------|
G/---------2-------------------9--------------1-2~--(4)-----|
D/----------------------------------------------------------|
A/----------------------------------------------------------|
E/----------------------------------------------------------|

...yo por ateo irracional

no tengo a quien rogarle...

E/--------------------12~--------17~-19~--12~---------|
B/----------7h9/10~--12~------------------------------|
G/----------------------------------------------------|
D/----------------------------------------------------|
A/----------------------------------------------------|
E/----------------------------------------------------|





Saludos, cualquier correccion q quieran hacer bienvenida sera
Aviso: Este fichero es trabajo propio de su transcriptor y representa su interpretación personal de la canción. El material contenido en esta página es para exclusivo uso privado, por lo que se prohibe su reproducción o retransmisión, así como su uso para fines comerciales.

Califica esta canción


Comentarios en Facebook