Las Pastillas Del Abuelo, Candombe

Imprimir
INTRO (I.-) X2

|---------0-|---0-||----------0-|---------|---|
|---------0-|---0-||------0-----|-------3-|---|
|-----------|---4-||--------0---|-------0-|-0-|
|----5------|-----||------------|---------|--0|
|-----------|-5---||--3---------|-2-------|---|
|-0---------|-----||------------|---3-----|---|

|-----------|----------|---|------------|----------------||
|---------1-|--------0-|---|----------1-|----0-------0---||
|----2------|0-------0-|-0-|----2-------|----0-------0---||
|-------2---|-----2----|--0|-------2----|----------------||
|-0---------|--2-------|---|-0----------|0-2-------------||
|-----------|----------|---|------------|----------2-----||


I.-
Una guitarra por demás desafinada
Un frío alquimista que todo transforma en hielo

Una canción que de movida está arruinada
Y una autoestima ya muy adherida al suelo.

II.-                                         E    A
|----------7----------4-------------5--------0---(0)-|
|-------9----------5-------------5-----------0----2--|
|----8----------6-------------6--------------1----2--|
|-9----------6------------------------------------2--|
|--------------------------7-------------------------|
|----------------------------------------------------|
   las       esperanzas     guardadas    en un cajón


|---------4-----------4-----------5----0--------|
|-------5----------5-----------5-------0---4----|
|----4----------6-----------6----------1---4----|
|------------6-----------------------------4----|
|-----------------------------------------------|
|-7----------------------7----------------------|
    no tienen pilas, yo que más le puedo hacer

|-----9---------------7------------4----4---4-4---0-0|
|-------10------------9------------5----4---5-5---0-0|
|-----------11------8--------------4----4---6-6---2-2|
|-11--------------9----------------------------------|
|----------------------------------7----6---4-4---0-0|
|----------------------------------------------------|
por dios que     difícil    que se hace com poner

002200 (rasgueado) cuando me falta tu ca-
224442 (rasgueado) -looooooor!

III.-
E                 B                   C#m
Y me resulta imposible sacarla de mi cabeza
                    G#             G          F#m
Un camino de ida y vuelta que termina en la cerveza
A        B
En la cerveza.

E                           B                         C#m
Y ruego a Dios que esto termine para poder ser el de antes
                    G#               G        F#m
Que no llora por mujeres y tiene siempre una amante
A           B          E      B
Siempre una amante.

CORTE: 1 INTRO + ESTO

|---------0-|---0-||----------0-|---------|---|
|---------0-|---0-||------0-----|-------3-|---|
|-----------|---4-||--------0---|-------0-|-0-|
|----5------|-----||------------|---------|--0|
|-----------|-5---||--3---------|-2-------|---|
|-0---------|-----||------------|---3-----|---|

|-----------|----------|---|------------|-------2-----||
|---------1-|--------0-|---|----------1-|-------0-----||
|----2------|0-------0-|-0-|----2-------|----2--------||
|-------2---|-----2----|--0|-------2----|-------------||
|-0---------|--2-------|---|-0----------|--2----------||
|-----------|----------|---|------------|-------------||

I.-
Ideas que vuelan pero que nunca aterrizan
Metáforas como cuentos sin moraleja

Del quinto piso está chistándome una vieja
Que como yo ya se olvidó de las sonrisas.


II.-
Un verso triste que me acaban de vender
Y los zapatos que me aprietan el talón
Disculpen que sea tan triste mi canción
Es que no la volveré a ver.


III.-
Y tengo miedo a equivocarme, a sufrir, ser lastimado,
Equivocarme es algo humano pero amarte es un pecado
Es un pecado.

Y ruego a Dios que esto termine para poder ser el de antes
Que no llora por mujeres y tiene siempre una amante
Siempre una amante.

002220
porque conozco yo el

224442
calibre de tus besos

022100
ya no me dejo asesi-

446654
-nar por esa boca

002220
no pongo un pleno mas por

224442
vos, no tengo un peso

022100
mejor le sedo a otro el

446654
turno que me

002220
tocaaaa

224442
queeee me

446664
tocaaaa


B - C#

F#                         C#7                        D#m
Y ruego a Dios que esto termine para poder ser el de antes
                    A#m              Am       G#m
Que no llora por mujeres y tiene siempre una amante
B          C#7  F#
Siempre una amante.

F#                C#7                   D#m
Y me resulta imposible sacarla de mi cabeza
                    A#m                 Am      G#m
Un camino de ida y vuelta que termina en la cerveza
B      C#7  F#
En la cerveza.


F#                   C#7                        D#m
Y tengo miedo a equivocarme, a sufrir, ser lastimado
                    A#m                  Am    G#m
Equivocarme es algo humano pero amarte es un pecado
B      C#7  F#
Es un pecado.


Outro X2:

|---------2-|---2-||----------2-|-------0--|
|---------2-|---2-||------2-----|-------5--|
|-----------|---2-||--------2---|-------0--|
|----2------|-2---||--0---------|----------|
|-----------|-----||----------- |--4--5----|
|-2---------|-----||------------|----------|

|-----------|----------|---|------------|---------------------------4--||
|---------3-|--------2-|---|----------3-|----2-------2--------------2--||
|----4------|--------2-|-2-|----4-------|----2-------2--------------2--||
|-------4---|-----4----|--4|-------4----|------------4--------------4--||
|-2---------|--4-------|---|-2----------|--4------------------------4--||
|-----------|----------|---|------------|----------4----------------2--||



Bueno la saqué toda a oido, hay partes que suenan igual y otras
muy parecido.
Espero que les guste.
Cualquier duda: [email protected]

Gracias Niko por los aportes!!
Aviso: Este fichero es trabajo propio de su transcriptor y representa su interpretación personal de la canción. El material contenido en esta página es para exclusivo uso privado, por lo que se prohibe su reproducción o retransmisión, así como su uso para fines comerciales.

Califica esta canción


Comentarios en Facebook