Enviado por:
anonimo

Los Bunkers, Canción Para Mañana

Imprimir
Aca les dejo una cancion, que me costo un poco encontrar los acordes,
no se si es la correcta, peroo suena muy bien. Cualquier duda que tengan
escribanme a mi correo---> [email protected], asi que ahora a
tocarla se ha dicho


Intro...

g-------------------------------------------------------
d---------------------------------9------4-6-7-2--2/14--
a---5---5/7---5---5/7---5-5--5/7----7-9-----------------
e-------------------------------------------------------


Despertar en las mañanas....

g-------------------------------------------
d-----7---7-6---6-5---5-4---4-3---3-2---2-1-
a--------7-----7-----5-----4-----3-----0----
e-------------------------------------------


La montaña  de tristeza....

g-----------------------
d---------------7/14----
a--2--2-0--2/7----------
e-----------------------


La ciudad en que marchaste....

g-------------------------------------------
d-----7---7-6---6-5---5-4---4-3---3-2---2-1-
a--------7-----7-----5-----4-----3-----0----
e-------------------------------------------

La lucha lleva....

g-----------------------
d---------------7/14----
a--2--2-0--2/7----------
e-----------------------

(Coro) Mañana habra promesas..(Se toca dos veces)

g------------------------------------9---x2
d--------------------------7/14---7h9----
a--5--5-4--4-2--2-0--2/7-----------------
e----------------------------------------

Los viejos son de lo peor.....

g-------------------------------------------
d-----7---7-6---6-5---5-4---4-3---3-2---2-1-
a--------7-----7-----5-----4-----3-----0-----
e-------------------------------------------

Y quien quiere mirarse....

g-----------------------
d---------------7/14----
a--2--2-0--2/7----------
e-----------------------


(Coro) Mañana habra promesas..(Se toca dos veces)

g------------------------------------9---x2
d--------------------------7/14---7h9----
a--5--5-4--4-2--2-0--2/7-----------------
e----------------------------------------

Aca toca la guitarra principal y el bajo hace esto...

g----------------------------------------------
d------------9--9h7----------------9--9h7------
a-----9---5/7--------9------9---5/7--------9---
e-7-7-------------------7-7--------------------

g-------------------------------------------
d-------------9--9h7-------4-6-7-2-/-14-----
a-----9---5/7--------9--9-------------------
e-7-7---------------------------------------

Ayer agonizo el amor dejo camisas...
(Se toca al final de este estribillo,
cuando la guitarra toca en Fa#)

g--------------------------------------------
d--------------------------4/124/124/12----
a-0------------------------------------------
e--------------------------------------------


Ayer agonizo el amor la muerte lo dejo escoger.....

g-----------------------
d-3---3-2---2-1---------
a----3-----0------------
e-----------------------

Y quien puede resuscitar....

g-------------------------------
d-------------------------------
a--2-2/12--7-5-4-2-0------------
e--------------------3----------

Demasiados imposibles...

g-------------------------------------------
d-----7---7-6---6-5---5-4---4-3---3-2---2-1-
a--------7-----7-----5-----4-----3-----0----
e-------------------------------------------

Nadar de espalda a ti....

g------------------------------------
d----9-7--7-5-----------7/14---------
a-------9-----7----7--9--------------
e----------------9-------------------

Mañana habra promesas...(se toca 3 veces)

g------------------------------------9---x3
d--------------------------7/14---7h9----
a--5--5-4--4-2--2-0--2/7-----------------
e----------------------------------------

Outro

g---------------------------------------------------------------
d----7--------9------7--------9------7--------9----------2/7----
a--5-----5/7----7--5-----5/7----7--5-----5/7----7-0--0-2--------
e------7---------------7---------------7------------------------
Aviso: Este fichero es trabajo propio de su transcriptor y representa su interpretación personal de la canción. El material contenido en esta página es para exclusivo uso privado, por lo que se prohibe su reproducción o retransmisión, así como su uso para fines comerciales.

Califica esta canción


Comentarios en Facebook