Enviado por:
anonimo

La Ley, Mírate

Imprimir
Bueno aqui va una espectacular
cancion Mirate en bajo que se la
dedico a una persona muy especial
para mi que no la he visto hace
mucho tiempo, esta cancion va para ti
y dice asi:


INTRO:

G|-----------------------------------------------|
D|-----------------------------------------------|
A|-3--3-3-----3-3-3-----3----------3--3-3--------|
E|-------33-3------33-3---3/10/3-3-------33-3~~--|

Verso:
  Mirate........
G|-----------------------------------------------|
D|-----------------------------------------------|
A|-3-3-3-----3-3-3--------3-3-3-----3-3-3--------|
E|------55-5------55-5-55------55-5------55-5-55-|

Pre-coro:
 Mirame sol y luz...........
G|---------------------------|
D|---------------------------|
A|---------------------------|
E|-1-1-1-33-3-1-1-1/33-3-33--|

Verso:
Mirate........
G|-----------------------------------------------|
D|-----------------------------------------------|
A|-3-3-3-----3-3-3--------3-3-3-----3-3-3--------|
E|------55-5------55-5-55------55-5------55-5-55-|

Pre-coro:
Mirame sol y luz.......
G|---------------------------|
D|---------------------------|
A|---------------------------|
E|-1-1-1-33-3-1-1-1-33-3-33--|

Coro:
vuelve a sentir..........
G|-----------------------------------|
D|-----------------------------------|
A|-----------------------------------|:x3
E|-5-5-5-5-5-5-5-5-0-0-0-0-0-0-0-0-0-|

Verso:
Mirate......
G|-------------------------------------------------|
D|-------------------------------------------------|
A|-3-3-3-----3-3-3--------3-3-3-----3-3-3----------|
E|------55-5------55-5-55------55-5------5-5/10/5--|

Pre-coro:
Mirame sol y luz......
G|---------------------------|
D|---------------------------|
A|---------------------------|
E|-1-1-1-33-3-1-1-1-33-3-33--|

Coro:
vuelve a sentir..........
G|-----------------------------------|
D|-----------------------------------|
A|-----------------------------------|
E|-5-5-5-5-5-5-5-5-0-0-0-0-0-0-0-0-0-|

Vuelve a sonar.......
G|-------------------------------------|
D|-------------------------------------|
A|-------------------------------------|
E|-5-5-5-5-5-5-5-5-12-12-12-12-12-12/5-|

Vuelve a gritar q vamos a lograr
G|-----------------------------------|
D|-----------------------------------|
A|-----------------------------------|
E|-5-5-5-5-5-5-5-5-0~~~~~-----12/5---|

Pos-coro:
Dejar de pensar.......
G|----------------------------------|
D|-2-2-2-2--------------------------|
A|---------5-5-5-5---------5-5-5-5--|:x3
E|-----------------3-3-3-3----------|

G|-------------------------------------|
D|-2-2-2-2-------------------------2~~-|
A|---------5-5-5-5---------5-5-5-5-----|
E|-----------------3-3-3-3-------------|

otro Intro:

G|---------------------------------|
D|---------------------------------|
A|----3--0-------------3---3~~~~---|
E|-33------03--3-5--33---3---------|

Verso:
  Mirate........
G|-----------------------------------------------|
D|-----------------------------------------------|
A|-3-3-3-----3-3-3--------3-3-3-----3-3-3--------|
E|------55-5------55-5-55------55-5------55-5-55-|

Pre-coro:
Mirame sol y luz.......
G|-------------------------|
D|-------------------------|
A|-------------------------|
E|-1-1-1-33-3-1-1-1-33-3~~-|

Coro:
vuelve a sentir, vuelve a sonar.......
G|---------------------------------------|
D|---------------------------------------|
A|---------------------------------------|
E|-5~~~~-5/12~~~~-12/5~~~~-5/12~~-12*~/5-|

Vuelve a gritar q vamos a lograr
G|-------------------------------------|
D|-------------------------------------|
A|-------------------------------------|
E|-5-5-5-5-5-5-5-5-0~~5/12-12-12-12/5--|

Dejar de pensar.......
G|----------------------------------|
D|-2-2-2-2--------------------------|
A|---------5-5-5-5---------5-5-5-5--|:x2
E|-----------------3-3-3-3----------|

Solo:
G|----------------------------------|
D|-2-2-2-2--------------------------|
A|---------5-5-5-5---------5-5-5-5--|:x4
E|-----------------3-3-3-3----------|

Pos-coro:
Deja de volar......
G|----------------------------------|
D|-2-2-2-2--------------------------|
A|---------5-5-5-5---------5-5-5-5--|:x4
E|-----------------3-3-3-3----------|

Final:

G|----------------------------------------|
D|----------------------------------------|
A|---------5-5-5-5------------------------|
E|-3-3-3-3---------3-3/12/8/5/3/0~~~~~~~--|

Bueno hay esta esta maravillosa cancion
espero que les alla gustado y les prometo
que esta buena a un 100%, sin ningun error
y espero que visiten mis otras colaboraciones
que son tambien de la ley:

Fuera de mi(tablatura)
Aqui(Bajo)
Libertad(tablatura)

y por las dudas mandenme un mail a
[email protected]
viva la mejor banda de rock del mundo!
!LA LEY!.
Aviso: Este fichero es trabajo propio de su transcriptor y representa su interpretación personal de la canción. El material contenido en esta página es para exclusivo uso privado, por lo que se prohibe su reproducción o retransmisión, así como su uso para fines comerciales.

Califica esta canción


Comentarios en Facebook