Enviado por:
anonimo

Los Piojos, Around & Around (zapatos De Gamuza Azul)

Imprimir
I said the joint was rockin'
                      A5 G5 A5
Goin 'round and round
                       D5 C5 D5
A reelin' and a rockin'
                   A5 G5 A5
What a crazy sound
                              E5 D5 E5
And they never stopped rockin'
                        A5 G5 A5
Till the moon went down

Parte con dos violas

G1: A5 G5 A5
G2: riff 1
Well it sounded so sweet
                          A5 G5 A5 (riff 1)
I had to take me a chance
                    D5 C5 D5 (riff 2)
Rose out of my seat
                    A5 G5 A5 (riff 1)
I just had to dance
                       E5 D5 E5 (riff 3)
Started moving my feet
                       A5 G5 A5 (riff 1)
Oh a clapping my hands

Riff 1             Riff 2            Riff 3
e|----------5---|------------10---|-----------0----|
b|-5--5--8----8-|-10--10--13---13-|--0--0--3-----3-|
g|--------------|-----------------|----------------|
d|--------------|-----------------|----------------|
a|--------------|-----------------|----------------|
E|--------------|-----------------|----------------|


I said the joint was rockin'
                       A7
Goin 'round and round'
                       D7
A reelin' and a rockin'
                   A7
What a crazy sound           Riff 1
                              E7
And they never stopped rockin'  Riff 2
                        A7
Till the moon went down

                       A5 G5 A5 riff 1
Yeah at twelve o'clock
                          A5 G5 A5 riff 1
yeah the place was packed
                       D5 C5 D5 riff 2
Front doors was locked
                         A5 G5 A5 riff 1
Yeah the place was packed
                           E5 D5 E5 riff 3
And when the police knocked
                      A5 G5 A5 riff 1
Those doors flew back


                             A7
I said the joint was rockin'
                       A7
Goin 'round and round'
                       D7
A reelin' and a rockin'
                   A7
What a crazy sound
                              E7
And they never stopped rockin'
                        A7
Till the moon went down


Solo de G2
 Se puede hacer con tapping:

e|-------------------------------|
b|-10-5-7-10-5-7-10-5-7-10--...--|
g|-------------------------------|
d|-------------------------------|
a|-------------------------------|
E|-------------------------------|


e|-------------------------------|
b|-10-6-7-10-6-7-10-6-7-----...--|
g|-------------------------------|
d|-------------------------------|
a|-------------------------------|
E|-------------------------------|

e|-------------------------------|
b|-10-7-8-10-7-8-10-7-8--....----|
g|-------------------------------|
d|-------------------------------|
a|-------------------------------|
E|-------------------------------|

e|-----------------------------------------------|
b|-8-3-5-7-3-5-8-3-5-7-----...-------------------|
g|-----------------------------------------------|
d|-----------------------------------------------|
a|-----------------------------------------------|
E|-----------------------------------------------|

O sino con un dibujo:

e|-----5-----5-----5------5-----5-----5----------|
b|-------5-7---5-7----5-7---5-7---5-7------------|
g|-----------------------------------------------|
d|-----------------------------------------------|
a|-----------------------------------------------|
E|-----------------------------------------------|

e|-----5-----5-----5-----5-----5------5----------|
b|-------6-7---6-7---6-7---6-7---6-7-------------|
g|-----------------------------------------------|
d|-----------------------------------------------|
a|-----------------------------------------------|
E|-----------------------------------------------|

e|-----5-----5-----5-----5-----5-----5-----------|
b|-------7-8---7-8---7-8---7-8---7-8-------------|
g|-----------------------------------------------|
d|-----------------------------------------------|
a|-----------------------------------------------|
E|-----------------------------------------------|

A7
Mepueden matar
tambien asesinar
todo mi dinero me pueden robar
coches nuevos puedes comprar
pero por favor no pises ya nunca
       D7                       A7
mis zapatos zapatos de gamuza azul
     E7              D7                A7  E7
no pises jamas mis zapatos de gamuza azul

A7
Mepueden matar
tambien asesinar
todo mi dinero me pueden robar
coches nuevos puedes comprar
pero por favor no pises ya nunca
       D7                       A7
mis zapatos zapatos de gamuza azul
     E7              D7                A7  E7
no pises jamas mis zapatos de gamuza azul
A7
zapatos de gamuza azul
zapatos de gamuza azul
D7
zapatos de gamuza azul
A7
zapatos de gamuza
          E7              D7                 A7 E7
y no me pises jamas mis zapatos de gamuza azul
A7
zapatos de gamuza azul
zapatos de gamuza azul
D7
zapatos de gamuza azul
A7
zapatos de gamuza
          E7                D7              A7  E7
y no me pises jamas mis zapatos de gamuza


Se puede improvisar en cada uno de los versos,
son solos en escala de La (A) y Re (D)
Aviso: Este fichero es trabajo propio de su transcriptor y representa su interpretación personal de la canción. El material contenido en esta página es para exclusivo uso privado, por lo que se prohibe su reproducción o retransmisión, así como su uso para fines comerciales.

Califica esta canción


Comentarios en Facebook