Enviado por:
anonimo

Soda Stereo, El Cuerpo Del Delito

Imprimir
**Ahí les va un bajaso de Zeta...


El tema empieza con el bajo

Esto es con slap (S) y pop (P)


   S  S  P P P  S S  S SS S S S P P P S S
g-------------------------------4-4-7------
D--------9-9-7-----------------------------    (X4)
A-----------------------------2------------
E--5--7---------0-2--2-55-4-2---------5-0--


0:29
Verso 1

   S  S  P P P  S S  S SS S S S P P P S S
g-------------------------------4-4-7------
D--------9-9-7-----------------------------    (X4)
A-----------------------------2------------
E--5--7---------0-2--2-55-4-2---------5-0--


"En un instante el mito estallo detras de mi, detras de vos
Sombras, implacables detectives q persiguen, persisten
No tienen pruebas ni identikits, no es posible la reconstrucción
Vola en pedazos todo vestigio, comprometedor.."


0:57
Puente

"Vamonos, salgamos de esta habitación, escondamoslo en algun lugar
seguro.."

g---------------------------------------------
D---------------------------------------------
A-555555555-----------------------7777777777--
E-----------5555555555-7777777777-------------

"Asi esta bien, ni la CIA ni la KGB, ni el FBI, no esta vez no podran
encontrar..."

g--------------------------------------------------------------
D-----9-9-7-----9-9-7--------------9-9-7-----9-9-7-------------
A--------------------------------------------------777777------
E-5-7-------5-7------555555555-5-7-------5-7-------------00000-


1:25
Estribillo

"El Cuerpo del delito...   El Cuerpo del delito..

   S  S  P P P  S S   S PS S S P P P S S  S S P P P
g------------------------------4-4-7----------------
D--------9-9-7----------7---------------------9-9-7-
A---------------------------------------------------
E--5--7---------0-2---5--0-5-7-------0-2--5-7-------


         El Cuerpo del delito"
  S S   S P S S P P P S S SS
g---------------4-4-7------------
D---------7----------------------
A--------------------------------
E-0-2---5---5-7-------0-2-55-----





1:40


     S  P P P  S S  S SS S S S P P P S S
g-------------------------------4-4-7------
D--------9-9-7-----------------------------
A-----------------------------2------------
E----7---------0-2--2-55-4-2---------5-0---



   S  S  P P P  S S  S SS S S S P P P S S
g-------------------------------4-4-7------
D--------9-9-7-----------------------------
A-----------------------------2------------
E--5--7---------0-2--2-55-4-2---------5-0--


1:54
Verso 2

   S  S  P P P  S S  S SS S S S P P P S S
g-------------------------------4-4-7------
D--------9-9-7-----------------------------    (X2)
A-----------------------------2------------
E--5--7---------0-2--2-55-4-2---------5-0--

"Cada uno es su propio velator, su propio infierno individual
Yo tengo a mano mi interruptor, detonador artificial.."



2:09
Definitivamente aca cambian los acordes del principio de este
puente antes del estribo.... Disculpas si me equivoco.....Ja


"Vamonos, salgamos de esta habitación, escondamoslo en algun lugar
seguro.."

g---------------------------------------------
D---------------------------------------------
A--22222222-----------5555555555-777777-------
E-----------222222222------------------00000--


"Asi esta bien, ni la CIA ni la KGB, ni el FBI, no esta vez no podran
encontrar..."

g--------------------------------------------------------------
D-----9-9-7-----9-9-7--------------9-9-7-----9-9-7-------------
A--------------------------------------------------777777------
E-5-7-------5-7------555555555-5-7-------5-7-------------00000-


2:37
Estribillo 2

"El Cuerpo del delito...   El Cuerpo del delito..

   S  S  P P P  S S   S PS S S P P P S S  S S P P P
g------------------------------4-4-7----------------
D--------9-9-7----------7---------------------9-9-7-
A---------------------------------------------------
E--5--7---------0-2---5--0-5-7-------0-2--5-7-------


         El Cuerpo del delito"
  S S   S P S S P P P S S SS
g---------------4-4-7------------
D---------7----------------------
A--------------------------------
E-0-2---5---5-7-------0-2-55-----


Ohh El Cuerpo del delito...   El Cuerpo del delito

   S  S  P P P  S S   S PS S S P P P S S  S S P P P
g----------------------------4-4-7----------------
D------9-9-7----------7---------------------9-9-7-
A-------------------------------------------------
E---7---------0-2---5--0-5-7-------0-2--5-7-------


         El Cuerpo del delito"
  S S   S P S S P P P S S SS
g---------------4-4-7----------
D---------7--------------------
A------------------------------
E-0-2---5---5-7-------0-2------


3:07
Final

g-----------------------------------------------------------------
D----2-----------------2-----------------2-----------------2------
A--2--2-4-5----------2--2-4-5----------2--2-4-5----------2--2-4-5-
E-----------2-55-4-2----------2-55-4-2----------2-55-4-2----------

g-----------
D-----------
A---------2-  Todo esto se repite hasta el final....
E-2-5-4-2---


Hay que escucharlo bien para encontrar los tiempos pero una vez q se
entiende esta muy bueno y divertido para tocarlo al tema...


Saludos---- Mariano Bria ------- [email protected]
Aviso: Este fichero es trabajo propio de su transcriptor y representa su interpretación personal de la canción. El material contenido en esta página es para exclusivo uso privado, por lo que se prohibe su reproducción o retransmisión, así como su uso para fines comerciales.

Califica esta canción


Comentarios en Facebook