Enviado por:
anonimo

Enanitos Verdes, Esta Mañana

bueno esta es mi primera transcripcion espero
les guste esta va dedicada a toda la fanaticada
del rock en español.Y me corrigan si estoy mal
asi aprendere mejor.gracias.


Pre Intro:
Em,D,Am,D.

Intro:
Em,D,Am. x2

e----------------------------------------
b----------------------------------------
g----------------------------------------
d-------7-9v-10s9-7v-9s7-----------------
a-7-9-10-----------------7v--------------
E----------------------------------------


e----------------------------------------
b----------------------------------7^5---
g--------------------------------5-------
d-------7-9v-10s9-7v-9s7------5h7--------
a-7-9-10-----------------7v--------------
E----------------------------------------


             Em                   D
desde que llegue, nunca paro de llover
             Am                      D
tampoco te pude ver, y es q nadie contesta
             Em                      D
desde que llegue con mi destino en la hogera
              Am                       D
no te deje de pensar, ni en noches de luna llena
      Am            Em         D
hice todo lo que habia por hacer
      Am            Em             D
sigo con el cuerpo frio y nada de comer

[Coros:]
      G              D         Am
Esta mañana deje a un lado la esperanza
     C           G                   D
y sali a caminar, por las calles embarradas
     G              D             Am
esta mañana me di cuenta que no hay nada
    C               G                     D
que yo pudiera hacer, para que deje de una vez
      Em ,D,Am x2
de llover.....

Intro:

Em,D,Am. x2

e----------------------------------------
b----------------------------------------
g----------------------------------------
d-------7-9v-10s9-7v-9s7-----------------
a-7-9-10-----------------7v--------------
E----------------------------------------

e----------------------------------------
b----------------------------------7^5---
g--------------------------------5-------
d-------7-9v-10s9-7v-9s7------5h7--------
a-7-9-10-----------------7v--------------
E----------------------------------------


           Em                     D
y a pesar de mi, no tuve mas q buscarte
              Am                       D
alucine que te vi fumando en cientos de bares
             Em                    D
y apesar de mi, mi corazon a latido hoy
                  Am                    D
como quierendo finjir que aun estabas conmigo

       Am           Em         D
hice todo lo que habia por hacer
      Am             Em            D
sigo con el cuerpo frio y nada de comer




[Coros:]
      G              D           Am
Esta mañana deje a un lado la esperanza
     C           G                   D
y sali a caminar, por las calles embarradas
     G              D             Am
esta mañana me di cuenta que no hay nada
    C               G                     D
que yo pudiera hacer, para que deje de llover

     G              D            Am
Esta mañana deje a un lado la esperanza
     C           G                   D
y sali a caminar, por las calles embarradas
     G              D             Am
esta mañana me di cuenta que no hay nada
    C               G                     D
que yo pudiera hacer, para que deje de una vez
       Em,D,Am,
de llover.....
       Em,D,Am,
de llover....
       Em,D,Am,
de llover....
       Em,D,Am,     Em.
de lloveeeeeeeer....


bueno esperor subir mas rolas y aqui les dejo mi
[email protected]
Aviso: Este fichero es trabajo propio de su transcriptor y representa su interpretación personal de la canción. El material contenido en esta página es para exclusivo uso privado, por lo que se prohibe su reproducción o retransmisión, así como su uso para fines comerciales.

Califica esta canción


Comentarios en Facebook