Enviado por:
anonimo

Callejeros, Canciones Y Almas

Imprimir
buenas... aca las dejo mi humilde version de canciones y almas
con las 2 guitarras y el saxo
corrigan cualquier cosa ok?...

[**saxo**]

      Ex3        Bx2      A           E
e)---------|----------|-------|----------------
B)---------|----------|-------|------4-4-2-----
G)-2-3-4---|----------|-2-----|4-4-2-4-4-4-4-2-
D)-------2-|--2-3-4---|-------|----------------
A)---------|--------2-|-------|----------------
E)---------|----------|-------|----------------

   B         E
e)-----|-----------|
B)-----|-----------|
G)-4---|-4-2-1-2-1-|
D)-----|-----------|
A)-----|-----------|
E)-----|-----------|

[**GUITARRA 1**]

      Ex2       P.M.----------x2
e)-----------7-|----------------|
B)-------------|----------------|
G)------6/8----|----------------|
D)-5/6---------|-9-9-7-6--------|
A)-------------|----------------|
E)-------------|---------7-7----|

         B                 A
e)------7-----11--|------7-----11--|
B)----------------|----------------|
G)--6/8---9/11----|--6/8---9/11----|
D)----------------|----------------|
A)----------------|----------------|
E)----------------|----------------|

       Ex2
P.M.----------             B
e)--------------|------7-----7-----11--|
B)--------------|----------------------|
G)--------------|--6/8---6/8---9/11----|
D)-9-9-7-6------|----------------------|
A)--------------|----------------------|
E)---------7-7--|----------------------|


                           E
e)------7------9-------12--12-12V-|
B)--------------------------------|
G)--6/8----8/9---9/11-------------|
D)--------------------------------|
A)--------------------------------|
E)--------------------------------|
(mas rapido)


>>1º VERSO<<

E
'Que te vendiste, que te compran, que te cojen,
que te tienen de esclavo.
Mirá que culo que tuvieron
                              B
estos putos que viven acá al lado.
         A
Y para adentro me preguntó Pato
                       E
qué es lo que habrá pasado,
        B
que me moría por tocar rocanrol
                                     E
y ahora que puedo algunos me estan fusilando



----------------------------------------------|

("en el 2º verso la 1ª guitarra, la 2ª y el
saxo son iguales")

>>2º verso<<

Te la creiste, las entradas son muy caras,
te subiste al caballo.
Después lo vez pagar el doble por un show
que no vale 10 centavos.
Es que mientras haya mundo habrá caretas
que la van a seguir boqueando
y mientras tanto este sueño contra todos
los que hablan y no viven va seguir agitando

----------------------------------------------|
[**SAXO**]

    A       B
e)-5-----|-7------|
B)-5-----|-7------|
G)-6-----|-8------|
D)-7-----|-9------|
A)-7-----|-9------|
E)-5-----|-7------|

           E
e)------------------
B)--------4-4-2-----
G)--4-4-2-4-4-4-4-2-
D)------------------
A)------------------
E)------------------



[**GUITARRA 1**]
        A               B
e)-----7----7----|-----11-----11--|
B)---------------|----------------|
G)--/8---/8------|--/11----/11----|
D)---------------|----------------|
A)---------------|----------------|
E)---------------|----------------|


                E
e)-----14-----14-----14--14-14-14-|
B)--------------------------------|
G)-/12----/12----/12----12-12-12--|
D)--------------------------------|
A)--------------------------------|
E)--------------------------------|



>>ESTRIBOLLO<<<

          A               B                     E
Si todo crece crecerá lo bueno y lo malo de la mano

            A                  B                   E
y esta hoguera de canciones y almas nos iremos quemando
           A                    B                      E
es que la gente que no crea el sueño no creerá lo que hago
             A                       B                  E
por que este sueño es la razón de mi vida para seguir soñando


-----------------------------------------------------------|

>>SOLO GUITARRA<<(todo sobre E)

e)--7-7-7-7---------------7-7-7-7-------------------------|
B)--7-7-7-7-7^---5--5-5-5-7-7-7-7-7^---5-5-5-5-5-5-5-5-5--|
G)-------------6---------------------6----6---6---6---6---|
D)--------------------------------------------------------|
A)--------------------------------------------------------|
E)--------------------------------------------------------|

|----------7---7---7------12/14-12/14-12/14-12-|
|-----7--7^--7^--7^--7--5-14-14-14-14-14-14-14-|
|6-8-------------------------------------------|
|----------------------------------------------|
|----------------------------------------------|
|----------------------------------------------|

|--121212-12/14-12/14-12/14-12-141414-|
|--141414-14-14-14-14-14-14-14-141414-|
|-------------------------------------|
|-------------------------------------|
|-------------------------------------|
|-------------------------------------|

e)----19---19---19---------------19---19---19--------|
B)-19^--19^--19^--19^-17---17-19^--19^--19^--19^-17v-|
G)---------------------------------------------------|
D)---------------------------------------------------|
A)---------------------------------------------------|
E)---------------------------------------------------|

[**SAXO**](durante el solo de guitarra)

     Ex15
e)-----------
B)-----------
G)-2-3-4-----
D)-------2---
A)-----------
E)-----------

el solo de saxo lo dejo para q alguien lo saque...
porq se me complica jeje














bueno un saludo para LA NOVENA
Y aguante callajeros...
desde Mza. los saluda el MECHA

 ______________________________________________________________
***LL****A******************************************************
**LL***AA*A*****************************************************
*LL***AA**A*****************************************************
LL***AA***A*****************************************************
LLLLAAAAAAALLLLL************************************************
**AA*****A***LL*************************************************
*AA******A*LL***************************************************
*********LL*******N******VV*******V*********************N**AA***
*******LL**NN****N**O*O*O**VV****V*EEEEEE********NN****N**AA*A**
*****LL**NN**N**N*O******O**VV***V*EEE*********NN**N**N**AA***A*
***LL**NN****N*N**O******O**VV**V**EEEEE******NN****N*N*AAAAAAA*
**LL**NN*****NN****O*****O***VV*V**E*********NN*****NN*AA******A
*LL**NN******N******O*O*O*****VV***EEEEEEEE*NN******N*AA*******A
LLLLLLLLLLLLLLLLLLLLLLLLLLLLLLLLLLLLLLLLLLLLLLLLLLLLLLLLLLLLLLLL
****************************************************************

(CoCo,Aaron,Maxi,Fede Y Mecha)





"se q no se pero siempre opino igual,
escribo sin escuchar si lo q hago yo mismo
esta bien o mal"
Aviso: Este fichero es trabajo propio de su transcriptor y representa su interpretación personal de la canción. El material contenido en esta página es para exclusivo uso privado, por lo que se prohibe su reproducción o retransmisión, así como su uso para fines comerciales.

Califica esta canción


Comentarios en Facebook