Enviado por:
anonimo

Los Bunkers, Jamás

Aqui les dejo una de mis canciones favoritas de los bunkers
el principio se hace con las notas con cejillo pero los coros
se tocan normales

/ = slide desde abajo
-------------------------------------------------------------------------

Em     B       Dm       A
Una tormenta se abalanzó
C           G           A              B7
Sobre los tiempos que vivimos sin ser dos
Em           B           Dm    A
Buscando a tientas un falso reloj
C         D              G
Se te quebró en el corazón


      C9            G
Los amigos no volverán
         C9             G
A encontrarse con los demás
G/F#    Em    Em7      C7
Tal vez tú jamás partirás


Em          B       Dm        A
Sin darte cuenta en la oscuridad
C          G            A          B7
Tus sentimientos se voltearon al mirar
Em         B     Dm        A
Buscando cuadros para recordar
C      D             G
Asomó la infelicidad


      C9            G
Los amigos no volverán
         C9             G
A encontrarse con los demás
G/F#    Em    Em7      C7
Tal vez tú jamás partirás
       G  D  C7
wou ou oh... jamás... wou ou oh...

[solo]
  Em      B      Dm     A      C         D
e|-----------------------------------------------|
B|---8-8----7-7----6-6----5-5----3-5-------5-7---|
G|-/9-9---/8-8---/7-7---/6-6---/3----3--/5-----5-|
D|-----------------------------------------------|
A|-----------------------------------------------|
E|-----------------------------------------------|

[ahora lo mismo pero mas veces y mas rapido]
   Em       B        Dm       A        C         D
e|--------------------------------------------------------|
B|---8-8------7-7------6-6------5-5------3-5--------5-7---|
G|-/9-9-9---/8-8-8---/7-7-7---/6-6-6---/3----3---/5-----5-|
D|--------------------------------------------------------|
A|--------------------------------------------------------|
E|--------------------------------------------------------|

   Em            B            Dm           A            C        D
e|------------------------------------------------------------------------|
B|---8-8-10-8------7-7-8-7------6-6-8-6-------5-5-6-5------3-5------5-7---|
G|-/9-9-------9--/8-8------8--/7-7------7--/6-6------6--/3----3--/5----5--|
D|------------------------------------------------------------------------|
A|------------------------------------------------------------------------|
E|------------------------------------------------------------------------|

G      C9            G
Años viejos se quemarán
         C9             G
Y en tus ojos se esparcirán
G/F#  Em     Em7    C7
Fragilmente y sin rodar
       G  D  C7
Wou ou oh... jamas

        Am    G      D
No te mientas, no recordarás
         Am    G         D
Lo que hiciste hace un tiempo atrás
        Am    G      D
No te mientas, no recordarás
      Am    G      D
No prometas lo que no harás.

 Am - G - D   x4
Aviso: Este fichero es trabajo propio de su transcriptor y representa su interpretación personal de la canción. El material contenido en esta página es para exclusivo uso privado, por lo que se prohibe su reproducción o retransmisión, así como su uso para fines comerciales.

Califica esta canción


Comentarios en Facebook