Enviado por:
anonimo

Reik, Como Me Duele

Esta es la introduccion de como me duele sesion metropolitana,
---------------------------0-------------------------2--0--------------
---------0---------------3---1-----0-------------------0------1p0h1----
---0---0---0----0------0---------0---0------0-----------------0--------
-2---4---------4-----2--------------------4---4--2---2--------2--------
--------------------------------------------------------------3--------
-----------------------------------------------------------------------

----------------------------------2--------------------5----2--------0-
----------------------------------3-------------3-------3----3------3--
-0---0-------0--------------------0-----------0---0------0----0----0---
--4s5--5-4-2---2-------0----------2------------------------------------
---------------------3---3-2----------------3--------------------3-----
-----------------------------------------------------------------------

----------------------------------------------------------7------------
-3-------3-------3-------3--------------------------------0------------
--0----0-------0-------0---0--------------0---0------------------------
-------------0-------0--------------4-------0---------5----------------
----3--------------3--------------2-----5-----------3------------------
--------------------------------0-----3--------------------------------


-2h3-3---2h3-3------------------15------14------10---------------------
-0---0---3---3----------3----------------------------------------------
-0---0---0---0-------0-----0-------12-----12---------------12-9---11---
-2---2---2---2-----------------------------------9--------9----9----9--
------------------3----------------------------------------------------
-----------------------------------------------------------------------


-----------------------------------------------------------------------
-10---10---12---8--------12-9---11------10---10---12---8---------------
-----------------------------------------------------------------------
----9----9----9---9----9------9----9-------9----9-----9----9---12s14---
-----------------------------------------------------------------------
-----------------------------------------------------------------------


------------------------------------------7--8--7----7--8--7-----------
------------------10---10---12---8----------0--0------0---0------------
-----------------------------------------------------------------------
---9-12-14-12--------9----9----9---9-----------------------------------
-10----------10--------------------------------------------------------
-----------------------------------------------------------------------


-----------------7--8--7----7--8--7---------------------------0--2--0--
-8--8-8-7--7-7----0---0------0--0--0---8--8-8-7--7-7--------3----------
9--9-9-9--9-9-------------------------9--9-9-9--9-9--------------------
----------------------------------------------------------------0------
-----------------------------------------------------------------------
-----------------------------------------------------------------------


---0----------0-------3---2---0----------0h2----------------0----------
3---3-------3--3-------0---0---0-------3------3---3------3---3---------
------0-0-------0-0--------------0---0--------------0-0-------0-0------
-------4---------4-----------------4-----0-----------4---------4-------
-----------------------------------------------------------------------
-----------------------------------------------------------------------

3---2---0-----------------------------------------
-0---0---0----------------------------------------
----------0-0--------------------------0-----0----
-----------4--------------------------4---4-4---4-
-------------------------------------9-----5-----5
--------------------------------------------------
Aviso: Este fichero es trabajo propio de su transcriptor y representa su interpretación personal de la canción. El material contenido en esta página es para exclusivo uso privado, por lo que se prohibe su reproducción o retransmisión, así como su uso para fines comerciales.

Califica esta canción


Comentarios en Facebook