Enviado por:
anonimo

Soda Stereo, Final Caja Negra

Imprimir
El bajo de éste tema es muy fácil, como no estaba en la lista,
me decidí a sacarlo.
Bueno, cualquier duda al [email protected]
Salu2


INTRO Armónicos Guitarra

INTRO Piano

G------------------------------------------
D------------------------------------------  x2
A-7--5--7----------8-5-7--7-7--7-7--7-77-5-
E----------8-8-666-------------------------

G-----------
D-----------   x2
A-----------
E-5-55--3-33-

Puente I
G------------------------
D------------------------
A---5*--5*--5*-----------
E-0---0---0----2-22-22-22


Estrofa I (x2)
G-------------------------------------------------------
D-------------------------------------------------------
A-77777777-55555555-77777777-55555555-77777777-55555555-
E-------------------------------------------------------

G------------------------|
D------------------------|
A-999999999999-12-11-9-7-|
E------------------------|


Repite Puente I
G------------------------
D------------------------
A---5*--5*--5*-----------
E-0---0---0----2-22-22-22

Repite Estrofa I (x2)
G-------------------------------------------------------
D-------------------------------------------------------
A-77777777-55555555-77777777-55555555-77777777-55555555-
E-------------------------------------------------------

G------------------------|
D------------------------|
A-999999999999-12-11-9-7-|
E------------------------|

Repite Puente I
G------------------------
D------------------------  x2
A---5*--5*--5*-----------
E-0---0---0----2-22-22-22

Guitarra y Teclados

G----------------------------------------------------------
D----------------------------------------------------------
A------2~~2------2~~2--4-44-4-5-55-5s10-1010-10-12-1212-12-
E-0~~0------0~~0-------------------------------------------

Por último (hasta fin):
G-------------------------------------------------------------|
D-------------------------------------------------------------|
A-7-77-7-2-22-2-7-77-7-2-22-2-4-44-4-5-55-5s10-1010-10-12-1212|
E-------------------------------------------------------------|

Version en vivo termina así:
G----------------------|
D----------------------|
A-5-7-5-7-5-7-5-7-99-7-|
E----------------------|


(5*)Nota:
Aquí Zeta usa un bajo de 5 cuerdas para hacer la nota RE más
grave que el MI ó usa un pedal octavador.
Aviso: Este fichero es trabajo propio de su transcriptor y representa su interpretación personal de la canción. El material contenido en esta página es para exclusivo uso privado, por lo que se prohibe su reproducción o retransmisión, así como su uso para fines comerciales.

Califica esta canción


Comentarios en Facebook