Las Pastillas Del Abuelo, Historia

Los acordes están bien en otras transcripciones asique solo
voy a subir los arpegios del tema que creo que tienen
algunos defectos en las transcripciones que vi.
Creo que asi suena mejor:


Intro: (|D|D|Bm|G|)x2

  D                                       Bm
e|---2---------2---------2---------------|---2---------2------|
B|----3---3-----3---3-----3---3----3---3-|----3---3-----3---3-|
G|-----0h2-------0h2-------0h2-----------|-----2h4-------2h4--|
D|-0---------0---------0---------0-------|--------------------|
A|-----------------------------------4---|-2---------2--------|
E|---------------------------------------|--------------------|

  G
e|-------3------------|
B|----3---------------|
G|----0---------------|
D|-------------0---0--|
A|----------0h2-2p0-0-|
E|-3------------------| x2



En el verso se toca asi:

  D                                 Bm
e|---2---2---2---2---2---2---2---2-|---2---2---2---2-|
B|---3---3---3---3---3---3---3---3-|---3---3---3---3-|
G|---2---2---2---2---2---2---2---2-|---4---4---4---4-|
D|-0-------0-------0-------0-------|-----------------|
A|-----0-------0-------0-------4---|-2-------2-------|
E|---------------------------------|-----2-------2---|
  G
e|---3---3---3---3-|
B|---3---3---3---3-|
G|---0---0---0---0-|
D|-----------------|
A|-----2-------2---|
E|-3-------3-------|




Inter 1 (1:00): (|D|D|Bm|G|)x2

  D                                       Bm
e|---2---------2---------2---------------|---2---------2------|
B|----3---3-----3---3-----3---3----3---3-|----3---3-----3---3-|
G|-----0h2-------0h2-------0h2-----------|-----2h4-------2h4--|
D|-0---------0---------0---------0-------|--------------------|
A|-----------------------------------4---|-2---------2--------|
E|---------------------------------------|--------------------|

  G
e|-------3------------|
B|----3---------------|
G|----0---------------|
D|-------------0---0--|
A|----------0h2-2p0-0-|
E|-3------------------|

  D                                 Bm
e|---2---2---2---2---2---2---2---2-|---2---2---2---2-|
B|---3---3---3---3---3---3---3---3-|---3---3---3---3-|
G|---2---2---2---2---2---2---2---2-|---4---4---4---4-|
D|-0-------0-------0-------0-------|-----------------|
A|-----0-------0-------0-------4---|-2-------2-------|
E|---------------------------------|-----2-------2---|

  G
e|---3---3---3------|
B|---3---3---3------|
G|---0---0---0------|
D|---------0------0-|
A|-----2-------0h2--|
E|-3----------------|



Inter 2 (2:19): (|D|D|Bm|G|D|D|)

  D                                       Bm
e|---2---------2---------2---------------|---2---------2------|
B|----3---3-----3---3-----3---3----3---3-|----3---3-----3---3-|
G|-----0h2-------0h2-------0h2-----------|-----2h4-------2h4--|
D|-0---------0---------0---------0-------|--------------------|
A|-----------------------------------4---|-2---------2--------|
E|---------------------------------------|--------------------|

  G
e|-------3------------|
B|----3---------------|
G|----0---------------|
D|-------------0---0--|
A|----------0h2-2p0-0-|
E|-3------------------|

  D
e|---2---------2---------2---------------|
B|----3---3-----3---3-----3---3--3-------|
G|-----0h2-------0h2-------0h2-----------|
D|-0---------0---------0---------0-0-----|
A|-----------------------------------4-2-|
E|---------------------------------------| Y engancha con
esto que es lo único que se toca con notas distintas en el tema

  A                 G                 A
e|---0---0---0---0-|---3---3---3---3-|---0---0---0---0-|
B|---2---2---2---2-|---3---3---3---3-|---2---2---2---2-|
G|---2---2---2---2-|---0---0---0---0-|---2---2---2---2-|
D|-----------------|-----------------|-----------------|
A|-0-------0-------|-----2-------2---|-0-------0-------|
E|-----0-------0---|-3-------3-------|-----0-------0---|
  Bm                A                 G
e|---2---2---2---2-|---0---0---0---0-|---3---3---3---3-|
B|---3---3---3---3-|---2---2---2---2-|---3---3---3---3-|
G|---4---4---4---4-|---2---2---2---2-|---0---0---0---0-|
D|-----------------|-----------------|-----------------|
A|-2-------2-------|-0-------0-------|-----2-------2---|
E|-----2-------2---|-----0-------0---|-3-------3-------|
  D                 A  (pausa hasta terminar tiempo y sigue)
e|---2---2---2---2-|-0---------------|
B|---3---3---3---3-|-2---------------|
G|---2---2---2---2-|-2---------------|
D|-0-------0-------|-----------------|
A|-----0-------0---|-----------------|
E|-----------------|-----------------|



Final: |D|D|Bm|G|D|A7| y termina en D.

  D                                       Bm
e|---2---------2---------2---------------|---2---------2------|
B|----3---3-----3---3-----3---3----3---3-|----3---3-----3---3-|
G|-----0h2-------0h2-------0h2-----------|-----2h4-------2h4--|
D|-0---------0---------0---------0-------|--------------------|
A|-----------------------------------4---|-2---------2--------|
E|---------------------------------------|--------------------|

  G                    D                 A7                D
e|-------3------------|-------2h3p2-----|---------0-----0-|-2-|
B|----3---------------|-----3-------3---|-------2---2-----|-3-|
G|----0---------------|---2-----------2-|-----0-------0---|-2-|
D|-------------0---0--|-0---------------|---2-------------|-0-|
A|----------0h2-2p0-0-|-----------------|-0---------------|---|
E|-3------------------|-----------------|-----------------|---|


Espero que se entienda y sirva, escuchar bien para sacar los
tiempos y el ritmo, cualquier duda o corrección a
[email protected]
leccuga.
Aviso: Este fichero es trabajo propio de su transcriptor y representa su interpretación personal de la canción. El material contenido en esta página es para exclusivo uso privado, por lo que se prohibe su reproducción o retransmisión, así como su uso para fines comerciales.

Califica esta canción


Comentarios en Facebook