Enviado por:
anonimo

Callejeros, Daños

Imprimir
Intro
e|-----------------------------------------------------------|
B|-----------------------------------------------------------|
G|-----------------------------------------------------------|X2
D|-----------/7-5--3-2-3--/5--3--3-0-2--/5--3--2-0-2---------|
A|-/5--0-1-0-----------------------------------------5--3--0-|
E|-----------------------------------------------------------|

Verso nº1
e|---------------(3)--------------------------------(3)------------|
B|-------------(3)--------------------------------(3)--------------|
G|-----------(3)-----x-2------------------------(3)----------------|
D|-------------------x--2---5-3-2-----------------------5h7--------|
A|-/5------------------------------5-3-5--------------------7-x-7--|
E|------3/5—(3)---------------------------5—-(3)--------------x----|

e|-----------------------------------------|
B|-----------------------------------------|
G|-x-x--10-9-7----7-----10-9-7----7--------|
D|-x-x---------10----0---------10----10/---|
A|-------------------0---------------------|
E|-----------------------------------------|

e|-----------------------------------------------(1)-----(3)------------|
B|-----------------------------------------------(1)-----(3)------------|
G|--5-5-------6-6—-7----7--7---5-5-------6-6-------------(3)------------|
D|--5-5--5-5--6-6--7----7--7---5-5-5-5---6-6---(3)---(5)-----8--8-7-----|
A|--3-3--5-5--4-4--5----5--5---3-3-5-5---4-4---(3)---(5)-----8------8---|
E|-------3-3-----------------------3-3---------(1)---(3)-----6----------|

e|---------8-------6----5-5----5---5-5-5---5-5-5--5--5--5-------|
B|---------8-------6----5-5----8---8-8-8---8-8-8--8--8—-8-------|
G|-----------------------------7---7-7-7---7-7-7--7--7—-7-------|
D|-0--10-10---8--8----7-----------------------------------------|
A|-0--10-10---8--8----7-----------------------------------------|
E|----8--8----6--6----5-----------------------------------13/1~~|

Estribillo nº1
e|-----------------------------------------------------------|
B|-------------------------------------------------10b—10~~--|
G|----------2------------------------------------------------|X2
D|--------3-------------------------------2-7-7-8------------|
A|---3/5-------5-3-5--0--------------3/5---------------------|
E|--------------------0--3-5-6-5-6~~-------------------------|

e|--------------------------8--8-8-8-8--|
B|--8-6-5-------------------8--8-8-8-8--|
G|--------7-5-7—-7/---------------------|
D|------------------0--10-10------------|
A|------------------0--10-10------------|
E|---------------------8--8-------------|

e|-----6--6-6-6-6--------8--8-8-8-8-----6-6-6-----|
B|-----6--6-6-6-6--------8--8-8-8-8-----6-6-6-----|
G|------------------------------------------------|
D|-8-8------------10-10------------8-8------------|
A|-8-8------------10-10------------8-8--------13/-|
E|-6-6------------8--8-------------6-6--------13/-|

Intermedio
e|-----------------------------------------------------------|
B|-----------------------------------------------------------|
G|-----------------------------------------------------------|X2
D|-----------/7-5--3-2-3--/5--3--3-0-2--/5--3--2-0-2---------|
A|-/5--0-1-0-----------------------------------------5--3--0-|
E|-----------------------------------------------------------|

Verso nº2
e|--------------3-------------------------------------3-3---------------|
B|--------------3-------------------------------------3-3---------------|
G|-----------------------2----------------------------------------------|
D|--------------------------2---5-3-2-----------------------5h7---------|
A|-/5-----------------------------------5-3-5--------------------7--x-7-|
E|------3/5—--3--------------------------------5—--3----------------x---|

e|-----------------------------------------|
B|-----------------------------------------|
G|-x-x--10-9-7----7-----10-9-7----7--------|
D|-x-x---------10----0---------10----10/---|
A|-------------------0---------------------|
E|-----------------------------------------|

e|-----------------------------------------------(1)-----(3)------------|
B|-----------------------------------------------(1)-----(3)------------|
G|--5-5-------6-6—-7----7--7---5-5-------6-6-------------(3)------------|
D|--5-5--5-5--6-6--7----7--7---5-5-5-5---6-6---(3)---(5)-----8--8-7-----|
A|--3-3--5-5--4-4--5----5--5---3-3-5-5---4-4---(3)---(5)-----8------8---|
E|-------3-3-----------------------3-3---------(1)---(3)-----6----------|

e|---------8-------6----5-5----5---5-5-5---5-5-5--5--5--5-------|
B|---------8-------6----5-5----8---8-8-8---8-8-8--8--8—-8-------|
G|-----------------------------7---7-7-7---7-7-7--7--7—-7-------|
D|-0--10-10---8--8----7-----------------------------------------|
A|-0--10-10---8--8----7-----------------------------------------|
E|----8--8----6--6----5-----------------------------------13/1~~|

Estribillo nº2
e|-----------------------------------------------------------|
B|-------------------------------------------------10b—10~~--|
G|----------2------------------------------------------------|X2
D|--------3-------------------------------2-7-7-8------------|
A|---3/5-------5-3-5--0--------------3/5---------------------|
E|--------------------0--3-5-6-5-6~~-------------------------|

e|--------------------------8--8-8-8-8--|
B|--8-6-5-------------------8--8-8-8-8--|
G|--------7-5-7—-7/---------------------|
D|------------------0--10-10------------|
A|------------------0--10-10------------|
E|---------------------8--8-------------|

e|-----6--6-6-6-6--------8--8-8-8-8-----6-6-6-----|
B|-----6--6-6-6-6--------8--8-8-8-8-----6-6-6-----|
G|------------------------------------------------|
D|-8-8------------10-10------------8-8------------|
A|-8-8------------10-10------------8-8--------13/-|
E|-6-6------------8--8-------------6-6--------13/-|

Intermedio
e|-----------------------------------------------------------|
B|-----------------------------------------------------------|
G|-----------------------------------------------------------|X2
D|-----------/7-5--3-2-3--/5--3--3-0-2--/5--3--2-0-2---------|
A|-/5--0-1-0-----------------------------------------5--3--0-|
E|-----------------------------------------------------------|

e|-----------------------------------------------------------------------|
B|-----------------------------------------------------------------------|
G|---------------7-9-10~~--10b--10-12-10--10-9-7----7----10-9-7----7-----|
D|--------5-7-8~~--------------------------------10----0--------10—-10---|
A|-5-7-8~~---------------------------------------------0-----------------|
E|-----------------------------------------------------------------------|

Final
e|------------------------------------------------------------|
B|---------3-5-6~~-------8-10-11~~----------------------------|
G|----------------------------------7-9-10~~--10b--10-12-10---|
D|--0-2-3----------5-7-8--------------------------------------|
A|------------------------------------------------------------|
E|------------------------------------------------------------|

e|--------------------------------------|
B|--------------------------------------|
G|---10-9-7----7-----10-9-7----7--------|
D|----------10----0---------10----10----|
A|----------------0---------------------|
E|--------------------------------------|

e|------------------------------------------------------------|
B|---------3-5-6~~-------8-10-11~~----------------------------|
G|----------------------------------7-9-10~~--10b--10-12-10---|
D|--0-2-3----------5-7-8--------------------------------------|
A|------------------------------------------------------------|
E|------------------------------------------------------------|

e|-----------------------------------------------------------|
B|-----------------------------------------------------------|
G|---10-9-7----7-----10-9-7----7-----------------------------|
D|----------10----0---------10----10---7---10----10/12~~~~~--|
A|----------------0------------------------------------------|
E|-----------------------------------------------------------|
Aviso: Este fichero es trabajo propio de su transcriptor y representa su interpretación personal de la canción. El material contenido en esta página es para exclusivo uso privado, por lo que se prohibe su reproducción o retransmisión, así como su uso para fines comerciales.

Califica esta canción


Comentarios en Facebook