Enviado por: Anonimo
Agrandar Letra
Reducir Letra
Imprimir






Divididos, Que Ves?

El WAWA de troilo no quiere arrancar,
                                 
falta envido y truco, chiste nacional
                            
ESTAMOS EN VENA, grita el mayoral,
                              
y PAGAS EL VALE un da despu‰s.

                      
Qu‰ ves?  Qu‰ ves cuando me ves?
                           
Cuando la mentira es la verdad.


La prensa de Dios lleva poster central,
el bien y el mal definen por penal,
Ta LA CHAPITA porrn en palomar,
cruzando la va papoderla pasar.
Qu‰ ves? Qu‰ ves cuando me ves?
Mentira es la "ltima verdad.

1: --------------------------------------------------------------------------------------------|
2: --------------------------------------------------------------------------------------------|
3: -------------------------------------------------9v-----9-----------------------------------|   
4: ---9--10-------9--10--12---------12--10----------------10---------10--12--10--9-7v----------|   
5: --------------------------------------------------------------------------------------------|
6:  -------------------------------------------------------------------------------------------|

e: --------------------------------------------------------------------------------------------|
B: --------------------------------------------------------------------------------------------|
G: --------------------------------------------------------------------------------------------|   
D: -------9--10-------10--9--10---10/17v-----10---12---------10------9--10---------------------|
A: --12--------------------------------------------------------14----------------------12------|
E:  -------------------------------------------------------------------------------------------|

V = vibrato
/= presionar y desplazarse(presionando la cuerda)hasta el traste siguiente

este tab lo hice con un piano pero trate de arreglarlo para una guitarra
no soy experto asi que si hay errores perdon (aunque no creo).
Cualkier cosa queme kieran decir haganla a   [email protected]

Fuente original: LaCuerda
Colaborador original: marcelo fleitas [[email protected]]
Aviso: Este fichero es trabajo propio de su transcriptor y representa su interpretación personal de la canción. El material contenido en esta página es para exclusivo uso privado, por lo que se prohibe su reproducción o retransmisión, así como su uso para fines comerciales.

Califica esta canción


Comentarios en Facebook