Enviado por: Anonimo
Agrandar Letra
Reducir Letra
Imprimir



Divididos, El 38

Transcribido por: Matias Pandullo

  

     El Bajo entra recien en el 1º estribillo


          Y para que tanto amor....
G|---------------------------------------------------------------------------|
D|---------------------------------------------------------------------------|
A|-------------------------------------2-3-4-5-5-5-5-5-5-5-5-5-5-5-5-5-3-----|
E|-0-0-1-2-3-3-3-3-3-3-3-3-3-3-3-3-3-3-----------------------------------5-3-(vuelve a X1 y repite lo mismo 
          (^X1)                                                                siempre desde ahi)                                                             

 
  
  Despues viene el RIFF una vez sola:

G|------------------------------------------------------|
D|---------------------------------5--------------------|
A|-7-7-7-5----5---5---5---5-7----7---7-5----5---5---5-7-|
E|----------7---7---7---7-----------------7---7---7-----|


 
  Despues vienen los versos:

G|--------------------------------|            
D|--------------------------------|
A|-.7--7-7-5-5-5--------------5---|   (El punto significa acentuar esa nota)
E|----------------3-3-3---7-7---7-|

  Esta parte esta mas o menos. No pude sacarla bien.
  Esto lo repite mas o menos 6 veces, creo. Fijensen bien.


  Despues viene el estribilllo de nuevo, pero con modificaciones:
                                                                             
G|-------------------------------------------------------------7-7-5-5-4---|  
D|---------------------------------------------4-4-5-5-6-6-7-7-----------7-|  |> Esto va una
A|-----------------------------------2-3-4-5-5-----------------------------|  |> sola vez
E|-0-1-2-3-3-3-3-3-3-3-3-3-3-3-3-3-3---------------------------------------|  /
                                                                            
  despues hace:

G|---------------------------------------------------------------|  
D|---------------------------------------------------------------|  |>esto lo repite
A|---------------------------2-3-4-5-5-5/4-5-5-5/4-5-5-5/4-5-3---|  |>unas 3 veces
E|-3-3-3-3-3-3-3-3-3-3-3-3-3-----------------------------------5-|  /


 
  Y a lo ultimo va 2 veces el Riff.




  Bueno, espero que les sirva de algo esta tablatura y que la disfruten.
  Sigan escuchando DIVIDIDOS que les hace bien. Especialmente las bases de Arnedo.
  Cualquier duda o correccion escribanme a: [email protected]

Fuente original: LaCuerda
Colaborador original: Matias Pandulio [[email protected]]
Aviso: Este fichero es trabajo propio de su transcriptor y representa su interpretación personal de la canción. El material contenido en esta página es para exclusivo uso privado, por lo que se prohibe su reproducción o retransmisión, así como su uso para fines comerciales.

Califica esta canción


Comentarios en Facebook