Enviado por:
anonimo

Enanitos Verdes, Olvidarte

Imprimir
Esta rola es para akellas personas ke no podemos olvidar, y por
mas ke tratemos de hacer mil cosas, no podemos evitarlo, así me
pasó a mi, por eso sake este bajeo...

Es una canción muy pausada, por eso deben de llevar muy bien
los tiempos.

Inicio:
Arpegio de Do (C)

Entra Bajo y Bateria...
(Cuánta poesía que escribían nuestros cuerpos...)

G-------------------------------------------------
D-------------------------------------------------
A-3-----1-----5-----5------3-----1-----5-----5----
E---3-3---5-5---3-3---3-3----3-3---5-5---3-3---3-3

(Y es que nunca imaginé...)

G---2----------------------------------------------
D-2--------2--2-2-----------------3-3--2--1--------
A-----5--5---------------------3-------------5----3
E-----------------5---5--4--3-------------------3--
                    (oohooono)

Bajo y bateria dejan de tocar y vuelve arpegio de Do (C)...

Entran de nuevo... (Puedes aplicarle un slide como este para
ke se oíga como en el cd)

G-----
D-----
A-15s3 y empieza con:
E-----

(En cada detalle, cada esquina, cada calle...)

G-------------------------------------------------
D-------------------------------------------------
A-3-----1-----5-----5------3-----1-----5-----5----
E---3-3---5-5---3-3---3-3----3-3---5-5---3-3---3-3

Precoro:
(Donde quedó la pasión):

G---2--------------------------------------------
D-2--------2--2-2-----------------3-3--2--1------
A-----5--5---------------------3-------------5---
E-----------------5---5--4--3-------------------3
                    (oohooono)

CORO:
También puedes poner otro slide, para ke se oíga mejor:

G-----
D-----
A----- y ya el coro:
E-13s1

(Que no puedo olvidarte...)

G----------------------------------------
D----------------2--2-3--3---------------
A-----------3--3-----------1--1-3-5-7-8--
E-1--1-3--3------------------------------

G--------------------------------------------------
D----------------2--2-3--3-------------------------
A-----------3--3-----------1--1-------------------3
E-1--1-3--3---------------------3--3-3--1--1-3--3--

Se detiene el bajo y batería, vuelve el arpegio, entras de nuevo
y empieza el solo de guitarra:

G-----
D-----
A-15s3 y empieza con:
E-----

G-------------------------------------------------
D-------------------------------------------------
A-3-----1-----5-----5------3-----1-----5-----5----
E---3-3---5-5---3-3---3-3----3-3---5-5---3-3---3-3

Precoro:
(Donde quedó la pasión):

G---2--------------------------------------------
D-2--------2--2-2-----------------3-3--2--1------
A-----5--5---------------------3-------------5---
E-----------------5---5--4--3-------------------3
                    (oohooono)
CORO:

G-----
D-----
A----- y ya el coro:
E-13s1

(Que no puedo olvidarte...)

G----------------------------------------
D----------------2--2-3--3---------------
A-----------3--3-----------1--1-3-5-7-8--
E-1--1-3--3------------------------------

G--------------------------------------------------
D----------------2--2-3--3-------------------------
A-----------3--3-----------1--1-------------------3
E-1--1-3--3---------------------3--3-3--1--1-3--3--

Final:

G---------------------------------------------------------------
D-----------------------------2--2-3--3-------------------------
A------------3-----------3--3-----------1--1-------------------3
E--1--1-3--3---1--1-3--3---------------------3--3-3--1--1-3--3--

Arpegio de Do, y fin...
Aviso: Este fichero es trabajo propio de su transcriptor y representa su interpretación personal de la canción. El material contenido en esta página es para exclusivo uso privado, por lo que se prohibe su reproducción o retransmisión, así como su uso para fines comerciales.

Califica esta canción


Comentarios en Facebook