Enviado por:
anonimo

Callejeros, Rehen

Imprimir
(Las notas del tema están en la transcripción de acordes)

Intro: RE x 4

e|--|---13-13-10|-----|
B|--|12-------10|-x4--|
G|--------------------|
D|--------------------|
A|--------------------|
E|--------------------|

Verla otra vez aunque sea una vez
y que no sea en un sueño..
                         (*1)
ohhhh cuando fumo sin asco.

Que la gilada me deje de llamar fontanet
en vez de santos fontanet.
                      (*2)
Que la papada no me cresca mas.

Que se acaben los vivos, los idiotas,

el hambre o esta politica
(*3)
que es mas o menos lo mismo
                    (*4)
y ya no da para mas.


El mensaje es para dios,
lo llevemos a San Pedro
de la puerta de tu cielo
y no los vamos a soltar ni a matar.
Solo nos cansamos de rezar por milagros...

Un par de centimetros mas,
un minuto real De felicidad
Por ver crecer a tus hijos como si fueran mios
Explicame que paso con mi vida
que me siento tan viejo ya...
No existe mayor verdad que mirarse a uno mismo...


Verte otra vez aunque sea una vez
y que no sea en un sueño..
                       (*1)
ohhhh cuando fumo sin asco.
que la palabra del pueblo
sea mas poderosa que la del medio
                             (*2)
que el que se enoje lo haga sin cobrar.

Que se acaben los vivos, los idiotas,
la muerte o estos politicos
(*3)                                         (*4)
que son mas o menos lo mismo y ya no da para mas
los llevamos a los dos, a San Pdro y al que cobra
los peajes de las puertas de este infierno
y no los vamos a soltar ni a matar.
Solo nos cansamos de reclamar por milagros...


Un par de centimetros mas,
un minuto real De felicidad
Por ver crecer a tus hijos como si fueran mios
Explicame que paso con mi vida
que me siento tan viejo ya...
No existe mayor verdad que mirarse a uno mismo...   uhhhhhhh

Solo 1
e|-----------------------------------------------------------------|
B|--13b-13b-13b-13-12-10-------------------------------------------|
G|-----------------------12b-12b-12-10-----------------------------|
D|-------------------------------------12-10-----------------------|
A|-------------------------------------------10-12-10----10--------|
E|----------------------------------------------------12----12-10--|

e|--13-13-10--13--13-10--|
B|--13-13-10--13--13-10--|
G|-----------------------|
D|-----------------------|
A|-----------------------|
E|-----------------------|

e|-----------------------------------------------------------------|
B|--13b-13b-13b-13-12-10-------------------------------------------|
G|-----------------------12b-12b-12-10-----------------------------|
D|-------------------------------------12-10-----------------------|
A|-------------------------------------------10-12-10----10--------|
E|----------------------------------------------------12----12-10--|

e|--13-13-10--13--13-10--|
B|--13-13-10--13--13-10--|
G|-----------------------|
D|-----------------------|
A|-----------------------|
E|-----------------------|

e|------------------------------------------|
B|------------------------------------------|
G|--s7--6--4--2------------------------s7~--|
D|---------------s5--5-4-5-4-5-4-5-4~-------|
A|------------------------------------------|
E|------------------------------------------|

El mensaje es para dios,
lo llevemos a San Pedro
de la puerta de tu cielo
y no los vamos a soltar ni a matar.
Solo nos cansamos de llorar por milagros...

Un par de centimetros mas,
un minuto real De felicidad

Solo 2
Base: Mim

e|----------------------------------------------------|
B|----8-8~-----8-8-7-5-5~-----------------------------|
G|--7--------7--------------7-5-4-4-4-4---------------|
D|----------------------------------------7s5---------|
A|--------------------------------------------7~-5h7--|
E|----------------------------------------------------|

e|--12-12~---------------------------------------------------------|
B|----------12-13-12-12~-------------------------13h15-13h15-15b~--|
G|------------------------11-12-11------------9~-------------------|
D|---------------------------------12-9h12-12----------------------|
A|-----------------------------------------------------------------|
E|-----------------------------------------------------------------|

                                                     MIm
e|----------------------------------(12)--------------0-------|
B|------8-8-8~----8-8-10-10-10----------(12)----------0-------|
G|--7h9---------9---------------------------(12)------0-------|
D|----------------------------------------------------2-------|
A|----------------------------------------------------2-------|
E|------------------------------------------------0---0---0~--|

*1                        *2                      *3
e|--8b-8b-8brp6------|   e|-------------------|   e|--|33-----3|-----|
B|--------------8-6--|   B|--8b-8b-8brp6-8-6--|   B|--|33-----3|-x3--|
G|-------------------|   G|-------------------|   G|--|--2h4---|-----|
D|-------------------|   D|-------------------|   D|-----------------|
A|-------------------|   A|-------------------|   A|-----------------|
E|-------------------|   E|-------------------|   E|-----------------|

*4
e|--13-13-13-13-10-13-10--|
B|--13-13-13-13-10-13-10--|
G|------------------------|
D|------------------------|
A|------------------------|
E|------------------------|

b: bending
r: release
h: hammer on
p: pull off
~: vibrato
(): armónico
Aviso: Este fichero es trabajo propio de su transcriptor y representa su interpretación personal de la canción. El material contenido en esta página es para exclusivo uso privado, por lo que se prohibe su reproducción o retransmisión, así como su uso para fines comerciales.

Califica esta canción


Comentarios en Facebook