Enviado por:
anonimo

Los Piojos, Buenos Dias Palomar

Imprimir
Intro:

Teclado sobre:
G     F/G     Em/G   G

Bajo:
(Cada linea de estas por acorde)
g|--------------------|--------------------|--||
d|-------5------------|-------5------------|--||
a|--------------------|--------------------|x2||
e|3-3-----3--3-3-3-3--|3-3-----3--3-3-3-3--|--||

Entra Ciro:
Bajo:

g|--------------------|--------------------|--||
d|-------5------------|-------5------------|--||
a|--------------------|--------------------|x2||
e|3-3-----3--3-3-3-3--|3-3-----3--3-3-3-3--|--||

Guitarra 1:
(Con el Dedal de Slide)
   G     F/G  Em/G    G
e|-----|-----|-----|-----||
b|/12~~|-----|-----|-----||
g|-----|-----|-----|/12~~||
d|-----|-----|-----|-----||
a|-----|-----|-----|-----||
E|-----|-----|-----|-----||

G     F/G     Em/G   G
Ohhhh ohhhhh ohhhh

Estrofa 1:
(La Linea de bajo se mantiene)
G
Un barco vikingo
          F/G
va surcando el Maldonado
      Em/G
para allá
        G
para allá
G
lluvia negra
                 F/G
lluvia como piedra
                Em/G
en la vela de metal
G
Oh, oh oh

G       F/G       Em/G       G
Ohhhhhh ohhhhhhhh ohhhhhhhh

Estrofa 2:
(Dedal)
  Fill1
e|-----||
b|-----||
g|10/12||
d|-----||
a|-----||
E|-----||
Guitarra 2:
  G       F/G       Em/G       G
e|--------------------------------|--||
b|--------------------------------|--||
g|12--12--12--12--12--12--12--12--|--||
d|--12--12--12--12--12--12--12--12|x4||
a|--------------------------------|--||
E|--------------------------------|--||

G
Árboles desiertos
        F/G
y una llama azul de invierno
      Em/G
y el motor,
         G  [Fill1]
de un avión
G  [Fill1]
algo es extraño
         F/G
todo está como hace año
       Em/G
como ayer,
       G
como hoy.
G    [Fill1]
te veo,
       F/G
sonriente
        Em/G            G
con la inglesa ahi enfrente
G    [Fill1]
verano
     F/G
se siente
      Em/G       G
en tu ropa liviana.


Estrofa 2:
Guitarra 1:
(Sin dedal)
e|---------------------------|--||
b|---------------------------|--||
g|---------------------------|--||
d|-5---7--3---5---2---3-2-0-0|x4||
a|---------------------------|--||
E|---------------------------|--||
Guitarra 2:
  G       F/G       Em/G       G
e|--------------------------------|--||
b|--------------------------------|--||
g|12--12--12--12--12--12--12--12--|--||
d|--12--12--12--12--12--12--12--12|x4||
a|--------------------------------|--||
E|--------------------------------|--||
G
Si estás al campito
         F/G
polvo y cielo y un fulbito
     Em/G        G
sin final, sin final
G
paredes de fuego
         F/G
en los cardos en Enero
       Em/G       G
y escapar, escapar.
G
Y el viejo Coco donde va
F/G
siempre con su renguera
Em/G
y el viejo coco donde va
              G
va en su Chevrolet.
G
Y caminabamos a la par
F/G
y caminabamos a la vez
Em/G
una mañana tus ojos miel
G
y tu paladar.

Riff:
e|----------10-----------------|-10--12-10---------||
b|8/10-10/12--12-12h13-13-12---|---12------13-12---||
g|--------------------------12-|-----------------12||
d|-----------------------------|-------------------||
a|-----------------------------|-------------------||
E|-----------------------------|-------------------||
   Riff
Oh  oh   oh.


Estrofa 3:
Guitarra 1:
e|---------------------------|--||
b|---------------------------|--||
g|---------------------------|--||
d|-5---7--3---5---2---3-2-0-0|x2||
a|---------------------------|--||
E|---------------------------|--||
Guitarra 2:
(Dedal)
  Fill1
e|-----||
b|-----||
g|10/12||
d|-----||
a|-----||
E|-----||

G
Beto se despide
   F/G
y Firulais que lo sigue
     Em/G [Fill1]  G
mírenlos, mírenlos
G
Fondo de la escuela
        F/G
alguien prende una vela
     Em/G          G
y el motor, del avión.

Estribillo:
Guitarra 1:
e|---------------------------|--||
b|---------------------------|--||
g|---------------------------|--||
d|-5---7--3---5---2---3-2-0-0|x2||
a|---------------------------|--||
E|---------------------------|--||
Guitarra 2:
(Acordes)

           G
Y si te digo que no sé,
        F/G
si te digo que me voy
         Em/G
si te digo que me quedo
            G
porque amo tu color.
 G
Bicicletas otra vez,
         F/G
en la tierra bajo el sol
           Em/G
buenos días Palomar,
           G
unos quieren y otros son.

Corte:
   G     F/G     Em/G    G     G       F/G       Em/G         G
e|---------------------------|-------------------------------------|
b|---------------------------|-------------------------------------|
g|---------------------------|-------------------------------------|
d|-5---7--3---5---2---3-2-0-0|-5---7---3---5------2-----3--2--0---0|
a|---------------------------|-------------------------------------|
E|---------------------------|-------------------------------------|
   G     F/G     Em/G    G     G       F/G       Em/G         G
e|----------------------(0)--|-7--7--7--8---8---10-----------------|
b|------------------------(3)|--8--8--8--10--10---12-12-10h12p10---|
g|---------------------------|---7--7------10--10----------------12|
e|---------------------------|-------------------------------------|
b|---------------------------|-------------------------------------|
g|---------------------------|-------------------------------------|

Estrofa 4:
Guitarra 1:

  G       F/G       Em/G       G
e|---------------------------|--||
b|---------------------------|--||
g|---------------------------|--||
d|-5---7--3---5---2---3-2-0-0|x4||
a|---------------------------|--||
E|---------------------------|--||
Guitarra 2:
  G       F/G       Em/G       G
e|--------------------------------|--||
b|--------------------------------|--||
g|12--12--12--12--12--12--12--12--|--||
d|--12--12--12--12--12--12--12--12|x4||
a|--------------------------------|--||
E|--------------------------------|--||

Fill3:
e|--0-|
b|---3|
g|2---|
d|----|
a|----|
E|----|

G
te veo,
       F/G
sonriente
        Em/G            G  [Fill3]
con la inglesa ahi enfrente
G
verano
     F/G
se siente
      Em/G       G  [Fill3]
en tu ropa liviana.

(Igual)
Se agrega Guitarra con efecto tremolo:
e|--------------------------------------------------------------|
b|8888888888888888888881010101010101010101010101212121212121212-|
g|--------------------------------------------------------------|
d|--------------------------------------------------------------|
a|--------------------------------------------------------------|
E|--------------------------------------------------------------|
TP..............................................................


G
Y el viejo Coco donde va
F/G
siempre con su renguera
Em/G
y el viejo coco donde va
              G
va en su Chevrolet.
G
Y caminabamos a la par
F/G
y caminabamos a la vez
Em/G
una mañana tus ojos miel

G
Y caminabamos a la par
F/G
y caminabamos a la vez
Em/G
una mañana tus ojos miel
G
y tu paladar.
 G
Bicicletas otra vez,
         F/G
en la tierra bajo el sol
           Em/G
buenos días Palomar,
           G
unos quieren y otros son.
Puente:
(Sobre Riff)
Llegar, buscar, jugar, abrir,
amar, caer, dejar, sufrir,
volver, probar, pagar, seguir
andube tanto tiem' dando
vueltas
así amor, que hacé mi amor
MI cama individual
viene el bombo, bebé
celebraló bailá,
ahi va el tambor,
tibio no bailes
tibio no bailes...

Corte:
          G
Me querés decir adonde
        G7
adonde se fue y se esconde
         Em
me querés decir adonde
         C                  D    G
va la sombra de lo que era.

Sobre:
e|-------------------------------------------|
b|12---12--12---12--12--12--12--12-10h12p10--|
g|--12---12--12---12--12--12--12-----------12|
d|-------------------------------------------|
a|-------------------------------------------|
E|-------------------------------------------|
               G
Si vos querés estar libre
         F/G
si querés alto volar
                    Em/G
que haya un hachazo en tu ojo
          G
pero una flor en tu ojal
             G             F/G
si vos querés estar libre

Oh eh oh ahh


Ohhhh ohhhhhh ohhhhhh

G
Un barco vikingo
          F/G
va surcando el Maldonado
      Em/G
para allá
        G
para allá
G
lluvia negra
                 F/G
lluvia como piedra
                Em/G
en la vela de metal
G
Oh, oh oh

FIN

Algunas aclaraciones:
-Aunque no haga los acordes, por si los quieren saber, son:
  G F/G Em/G
e|3|-1-|-0-|
b|3|-1-|-0-|
g|4|-2-|-0-|
d|5|-3-|-2-|
a|5|-0-|-2-|
E|3|-3-|-3-|
-Fijensé que el bajo en SOL es constante, aunque sin este se puede
hacer perfectamente, está mas que nada por el teclado
-En algunas estrofas no puse la guitarra con dedal, es que
simplemente está muy de fondo y la tapa otra guitarra, pero es
mas o menos lo mismo, creo que tambien hay algun que otro efecto
de cuerdas
-Los tiempos del Riff no son constantes, juega mas que nada con eso
-El Bajo es SIEMPRE IGUAL, el ritmo es el mismo que la bata,
escuchenla para guiarse, es mas percusivo que nada

Dedicada a Pablo e Iván!
Aviso: Este fichero es trabajo propio de su transcriptor y representa su interpretación personal de la canción. El material contenido en esta página es para exclusivo uso privado, por lo que se prohibe su reproducción o retransmisión, así como su uso para fines comerciales.

Califica esta canción


Comentarios en Facebook