Las Pastillas Del Abuelo, Historia

Intro
  D                               Bm               G

E---2-----------2---------2----2----2-------2--------2---2--
B-----3---3------3---3----3----3-----3--3----3--3----2---2--
G------02---------02------2----2------4-------4------0---0--
D-0---------0----------0------------------------------------
A-----------------------------4----2--------2---------------
E--------------------------------------------------3----3---

  A

E-------------------
B-------------------
G-------------------
D------0-----0---0--      X 2
A--0-2---0-2---2----
E-------------------



Durante las estrofas hace esto:

E---2---2---2---2---2---2---2---2---2---2---2---2---2---2---2---2-----
B---3---3---3---3---3---3---3---3---3---3---3---3---2---2---2---2-----
G---2---2---2---2---2---2---2---2---4---4---4---4---0---0---0---0-----
D-0-------0-------0-------0-------------------------------------------
A-----0-------0-------0-------4---2-------2-----------2-------2-------
E-------------------------------------2-------2---3-------3-----------


Inter 2 = intro 1 (x1) + inter 2

E---2---2---2---2---2---2---2---2---2---2---2---2---2---2---2---------
B---3---3---3---3---3---3---3---3---3---3---3---3---2---2---2---------
G---2---2---2---2---2---2---2---2---4---4---4---4---0---0---0---------
D-0-------0-------0-------0-------------------------------0------0---0
A-----0-------0-------0-------4---2-------2-----------2-------02---0--
E-------------------------------------2-------2---3-------------------


Inter 3: Intro 1 + Inter 3


E---2-----------2---------2----2----2-------2--------2---2---------
B-----3---3------3----3---3----3-----3--3----3--3----2---2---------
G------02---------02------2----2------4-------4------0---0---------
D-0---------0----------0-------------------------------------------
A-----------------------------4----2--------2----------------------
E--------------------------------------------------3----3----------

E------------------------2----------2-----------2-------2--2-------
B-------------------------3---3------3---3-------3---3--3--3-------
G--------------------------02---------02----------02----2--2-------
D------0-----0---0---0-----------0-----------0----------0--0-------
A--0-2---0-2---2----------------------------------------------4-2-0
E------------------------------------------------------------------

Durante la estrofa “ahora ella va a dos mil por hora” hace esto:

E--------------------2---2---2---2--------------------
B----3---3---3---3---2---2---2---2----3---3---3---3---
G----3---3---3---3---0---0---0---0----3---3---3---3---
D----3---3---3---3--------------------3---3---3---3---
A--0-------0-----------2-------2----0-------0---------
E------0-------0---3-------3------------0-------0-----

E-----2---2---2---2--------------------2---2---2---2--
B-----3---3---3---3----3---3---3---3---2---2---2---2--
G-----4---4---4---4----3---3---3---3---0---0---0---0--
D----------------------3---3---3---3------------------
A--2--------2--------0-------0-----------2-------2----
E-------2-------2--------0-------0---3-------3--------

E----2---2---2---2------------------------------------
B----3---3---3---3---3--------------------------------
G----2---2---2---2---3--------------------------------
D--0-------0---------3--------------------------------
A------0-------0-----0--------------------------------
E-----------------------------------------------------

Final:

 D                                Bm              G
E---2-----------2---------2----2----2-------2--------2---2--
B-----3---3------3---3----3----3-----3--3----3--3----2---2--
G------02---------02------2----2------4-------4------0---0--
D-0---------0----------0------------------------------------
A-----------------------------4----2--------2---------------
E--------------------------------------------------3----3---

  A                 D              A7          D

E-------------------------2-3-2-------------0--2------------
B-----------------------3-------3---------2----3------------
G---------------------2-----------2-----0------2------------
D------0-----0---0-0------------------2--------0------------
A--0-2---0-2---2--------------------0-----------------------
E-----------------------------------------------------------
Aviso: Este fichero es trabajo propio de su transcriptor y representa su interpretación personal de la canción. El material contenido en esta página es para exclusivo uso privado, por lo que se prohibe su reproducción o retransmisión, así como su uso para fines comerciales.

Califica esta canción


Comentarios en Facebook