Enviado por:
anonimo

Soda Stereo, Dietetico

Imprimir
EADG

Weno, taba eskuxando la musik ke tenia metia
mi viejo en el Pc weon..
Y salio esta wea!
Me akuerdo ke lo eskuxaba kuando xiiko
Wuajja aora sake la tab
Les aseguro ke esta 100% correcta
Disfruten!



Intro
1.
G|--------------------------------------|
D|--------------------------------------|
A|-5-530-03--5530-03--5-530-03--5530-03-|
E|------2--------2---------2--------2---|

Koro
[Dietetico..]
2.
G|--------------------------------------|
D|--------------------------------------|
A|-5-530-03--5530-03--5-530-03--5530-03-|
E|------2--------2---------2--------2---|

Verso
[Somos un conjunto dietetico..]
3.
G|-------------------------------------------|
D|---------------------------2~--------------|
A|----------------------------------------2~-|
E|-3~----3-55-5-3~----3-55-3-------0-55-5----|

Pre-Koro
4.
G|------|
D|------|
A|--2-3-|
E|-0-0--|

Koro
[Dietetico..]
5.
G|--------------------------------------|
D|--------------------------------------|
A|-5-530-03--5530-03--5-530-03--5530-03-|
E|------2--------2---------2--------2---|

Verso
[Somos un conjunto dietetico..]
6.
G|-------------------------------------------|
D|---------------------------2~-2------------|
A|----------------------------------------2~-|
E|-3~------55-5-3~----3-55-3-------0-55-5----|

Pre-Koro
7.
G|--4-5-|
D|------|
A|------|
E|-0-0--|

Koro
[Dietetico..]
8.
G|--------------------------------------|
D|--------------------------------------|
A|-5-530-03--5530-03--5-530-03--5530-03-|
E|------2--------2---------2--------2---|

Verso
[Somos un conjunto jejeje..dietetico..]
9.
G|-------------------------------------------4-4-|
D|------------------5------5-2~------------------|
A|----------------------------------------2~-----|
E|-3~------55-5-0~------55-----------55-5--------|

Pre-Koro
10.
G|--4-5-|
D|------|
A|------|
E|-0-0--|

Koro
[Dietetico..]
11.
G|--------------------------------------|
D|--------------------------------------|
A|-5-530-03--5530-03--5-530-03--5530-03-|
E|------2--------2---------2--------2---|

Verso
[Viviendo en una nada dietetica..]
12.
G|-------------------------------------------|
D|---------------------------2~-2------------|
A|----------------------------------------2~-|
E|-3~------55-5-3~----3-55-3-------0-55-5----|

Pre-Koro
13.
G|--4-5-|
D|------|
A|------|
E|-0-0--|

14.
G|--------------------------------------|
D|--------------------------------------|
A|-5-530-03--5530-03--5-530-03--5530-03-|--x8
E|------2--------2---------2--------2---|

2:34
15.
G|-----------2222-2222-4444-4444-5555-5555-|
D|-5555-5555-------------------------------|
A|-----------------------------------------|
E|-----------------------------------------|

16.
G|-------------------|
D|-------------------|
A|-5-530-03--5530-03-|
E|------2--------2---|

[El regimen se akabo, se akabo!]
17.
G|------2-22-4-44-5-55--------------------|
D|-5-55-----------------------------------|
A|----------------------5-530-03--5530-03-|
E|---------------------------2--------2---|

[El regimen se akabo, se akabo!]
18.
G|------2-22-4-44--4-5--------------------|
D|-5-55-----------------------------------|
A|----------------------5-530-03--5530-03-|--x2
E|----------------0-0--------2--------2---|

[El regimen se akabo, se akabo!]
19.
G|----------------------------------------|
D|-----------2-22-------------------------|
A|-3-33-2-22------0-00--5-530-03--5530-03-|
E|---------------------------2--------2---|

[El regimen se akabo, se akabo!]
20.
G|------2-22-4-44-5-55-|
D|-5-55----------------|
A|---------------------|
E|---------------------|

21.
G|--------------------------------------|
D|--------------------------------------|
A|-5-530-03--5530-03--5-530-03--5530-03-|--x2
E|------2--------2---------2--------2---|

3:31
22.
G|--------------------------------------|
D|--------------------------------------|
A|-5-530-03--5530-03x---53-03x--5530-03-|
E|------2--------2--------2---------2---|

Y eso!!..
Grande Soda Stereo!

+++++++++++++++++++

Letra:

Dietetiko, Dietetiko

Somos un konjunto dietetiko
Tiramos una onda dietetika
Kansiones de amor kon sakarina
Kon menos de una kaloria

Dietetiko, Dietetiko

Somos un konjunto dietetiko
Mejoramos tu mensaje genetiko
Seguro tu kuerpo libre
Konsume ke no hay peligro

Dietetiko, Dietetiko

Somos un konjunto jejej.. Dietetiko
Buskando el paraiso estetiko
Nuevas mentes deskremandas
Siluetas de gimnasia Jazz

Dietetiko, Dietetiko

Vivimos una mano dietetika
Soñando en una kama sintetika
Te kiero pero estas tan gorda
Presiento ke no sos moderna

El Regimen se akabo
Se akabo..

+++++++++++++++++++

+++++++++++++++++++

+++++++++++++++++++++++++++++++++
| RaiLeff                       |
| [email protected] |
+++++++++++++++++++++++++++++++++
Aviso: Este fichero es trabajo propio de su transcriptor y representa su interpretación personal de la canción. El material contenido en esta página es para exclusivo uso privado, por lo que se prohibe su reproducción o retransmisión, así como su uso para fines comerciales.

Califica esta canción


Comentarios en Facebook