Enviado por:
anonimo

No Te Va Gustar, Arde

Imprimir
INTRO:
E:--------------------------------------------------|
B:--------------------------------------------------|
G:--------------------------------------------------|
D:--------------------------------------------------|
A:--2--2--2--2--2--2--2--2--2--2--------------------|
E:--------------------------------------------------|

VERSO
G:--------------------------------------------------|
D:--------------------------------------------------|X2
A:0h1/7-5-4----4-5-7-------5--7---------------------|
E:----------7---------5--7--------------------------|

No puedo darte la vida
G:--------------------------------------------------|
D:--------------------------------------------------|x2
A:--------------------------------------------------|
E:3-3-3-3--5--7-7-7-7--5-5-5-5----------------------|

NI LA SOLUCION
G:-------------------------------|
D:-------------------------------|
A:-------------------------------|
E:--5-5-5--17-17-17-17-----------|

Arden las heridas
G:-----------------------------------------------------|
D:--4-2------------------------------------------------|x4
A:2-----4-2------4-5-6-7--7-5-4-7--7-5-4-2-------------|
E:-----------5-5---------------------------------------|

VERSO
G:--------------------------------------------------|
D:--------------------------------------------------|X4
A:0h1/7-5-4----4-5-7-------5--7---------------------|
E:----------7---------5--7--------------------------|


No puedo darte la vida
G:--------------------------------------------------|
D:--------------------------------------------------|x2
A:--------------------------------------------------|
E:3-3-3-3--5--7-7-7-7--5-5-5-5----------------------|

NI LA SOLUCION
G:-------------------------------|
D:-------------------------------|
A:-------------------------------|
E:--5-5-5--17-17-17-17-----------|

Arden las heridas
G:-----------------------------------------------------|
D:--4-2------------------------------------------------|x4
A:2-----4-2------4-5-6-7--7-5-4-7--7-5-4-2-------------|
E:-----------5-5---------------------------------------|

SOLO
G:--------------------------------------------------|
D:--------------------------------------------------|X2
A:0h1/7-5-4----4-5-7-------5--7---------------------|
E:----------7---------5--7--------------------------|

FINAL.

VA MARCANDO LAS TONICAS HASTA EL FINAL

G:--------------------------------------|
D:--------------------------------------|
A:---------------------5-5-5-5-5-5-5-5-5|
E:--5-5-5-5--4-3-3-3-3------------------|
Aviso: Este fichero es trabajo propio de su transcriptor y representa su interpretación personal de la canción. El material contenido en esta página es para exclusivo uso privado, por lo que se prohibe su reproducción o retransmisión, así como su uso para fines comerciales.

Califica esta canción


Comentarios en Facebook