Las Pastillas Del Abuelo, Algo De Vos

Imprimir
Como siempre digo para tocarlo escuchen el tema para sacarle
bien el feeling y el tiempo.
Creo que en algunas parte es dificil sacarlo pero
con practica se puede tocar...


Solo: [3:52]

Base: G-D-C-G-D-Am-G-D-B-E-D-E-D-E-D-E-D-E-D-E

E------------------------------------|
B-10/12-10-8-8h10--10b12-10-8-8h10-8-|
G------------------------------------|
D------------------------------------|
A------------------------------------|
E------------------------------------|


E----------------------10-10-9-10--12-12-12-10----------------------|
B-----------8-7-8-8/12------------------------12-12br-10--------10--|
G-------7-9---------------------------------------------12-11-12----|
D----9--------------------------------------------------------------|
A-10----------------------------------------------------------------|
E-------------------------------------------------------------------|


E-------------------------15-14---|
B--10*/12--12-12*/13-13-13--------|
G-9-------------------------------|
D---------------------------------|
A---------------------------------|
E---------------------------------|


E----------------------------------------|
B-13-12-15p13p12-------------------------|
G---------------14-12---12--14br---12----|
D--------------------14----------14---14-|
A----------------------------------------|
E----------------------------------------|


E------------------------------------------|
B---------8--10/12-12-[10b12-12](x4)-10b12-|
G-----7-9----------------------------------|
D-7-9--------------------------------------|
A------------------------------------------|
E------------------------------------------|


E-12-15-12----------------------------------------------|
B---------15-12-----------------------------------------|
G--------------14-12-14-12---12-14-12--------------12---|
D--------------------------14---------14-12---12-14--14-|
A------------------------------------------14-----------|
E-------------------------------------------------------|


E-12*--15-10*/12--15-17*b18r-15-17-|
B----------------------------------|
G----------------------------------|
D----------------------------------|
A----------------------------------|
E----------------------------------|


E-7-[12-10-7]t(x3)-15-12-14------------------|
B--------------------------12-10-8-10b12r----|
G--------------------------------------------|
D--------------------------------------------|
A--------------------------------------------|
E--------------------------------------------|


E----------------------------------------------|
B--------8-8--8--10-10b12r---10b12r*--9*/10p9--|
G----7-9----9----------------------------------|
D-7h9------------------------------------------|
A----------------------------------------------|
E----------------------------------------------|

NOTACION:

*:Dejar sonar

b:Estirar un tono o hasta que suene como la nota q esta al lado.
br:Estirar la nota un tono o hasta que suene como la nota
q esta al lado y volver a la nota original.

[12-10](x4)ej: Tocar lo que esta entre corchetes las veces que
indique el parentesis.

t: Tapping. se puede usar esta tecnica en el [12-10-7](x3) para
mas velocidad.



sAlUtE!!!

Criticas, dudas, agreguen:

[email protected]

pd:seguramente se vea mal asique si lo quiren agreguen que les paso el .txt
porque nose como areglarlo.
Aviso: Este fichero es trabajo propio de su transcriptor y representa su interpretación personal de la canción. El material contenido en esta página es para exclusivo uso privado, por lo que se prohibe su reproducción o retransmisión, así como su uso para fines comerciales.

Califica esta canción


Comentarios en Facebook