Enviado por:
anonimo

La Ley, Tejedores De Ilusión

    este es el arpegio que va en los versos:

    Am              C
e|---------------------------------------------|
B|--------1-0-1--------1-0-1-------------------|
G|---------------2------------0----------------|
D|-----2------------2--------------------------|
A|--0------------------------------------------|
E|---------------------------------------------|

    D[9]
e|-----------0-----------------0---------------|
B|--------3-----3-----------3-----2------------|
G|-----2-----------2-----2-----------3---------|
D|--0-----------------0-----------------0------|
A|---------------------------------------------|
E|---------------------------------------------|

colaboracion arpegio Felipe Kohl Zapata
[[email protected]]
====================================================

 Intro: G - C - F  

  Am    C            D 
A] Tejedores de ilusion, comulgadores
  Am       C            D 
   tejen grandes vendas, para ocultar
  Am        C         D 
   la estancada realidad, en que vivimos
  Am       C          D 
   y una triste dignidad


  G          C       F  
B] Un nuevo dia vendra 
  G        C    F    
   y cantaremos, chalalaliron    
   F  
   chalalaliron


A] Estancadores de emosion, predicadores
   hablan de crisis moral
   cuidan tanto sus costumbres
   y tu pena crece mas
   y nuestra vida sigue igual


B] Un nuevo dia vendra
   y cantaremos, chalalaliron,
   chalalaliron
   y bailaremos, chalalaliron,
   chalalaliron


A] Cuidan tanto sus costumbres
   y tu pena crece mas
   cuidan tanto sus costumbres
   y tu pena y vida sigue igual
   la vida sigue igual  
   la vida sigue igual [bis]

====================================================
Copiado de la pagina de guitarra de Mitsuteru Nishio
[http://www.tricom.net/~nishio/guitarra.htm]
Transcripcion de Rodrigo Mu~oz Martinez
[[email protected]]
Aviso: Este fichero es trabajo propio de su transcriptor y representa su interpretación personal de la canción. El material contenido en esta página es para exclusivo uso privado, por lo que se prohibe su reproducción o retransmisión, así como su uso para fines comerciales.

Califica esta canción


Comentarios en Facebook