Enviado por:
anonimo

Soda Stereo, Fue

Imprimir
Hola, subo la versión de estudio. Es un poco difícil, digamos que
el nivel no es principiante ni es avanzado, término medio. Sólo
hay que escuchar la canción y los tiempos.
Puede haber alguna variación en alguna línea de bajo que se me haya
escapado. Bueno, se toca sin púa éste tema de soda para que suene
bien grave.
Salu2.


He llegado...
G---------------------------------------------------------
D-----------------------------------------------------777-
A-------7-9--9--------------------11-9--9-11--------7-----
E-9--7----------5-5--7-9--9--7-----------------5-5--------

Tantas veces...
G----------------------------------------------------------------
D---------11--------------------------------------------------777
A----9S11--------9--9-7-----------------11-11-9--9-7-----7-7-----
E-9------------7---------5-5--7-9--9-7----------------55---------

Y eso pasó
G-----------------------
D-----------------------
A----7-7----7----77-77-7
E-0------0----0---------

Me embriagué...
G--------------------------------------------------------
D---------------------------------------------------777--
A-------7-9--9-----------------11-11-9-9-11------7-------
E-9--7----------5-5--7-9--9-7----------------5-5---------

Fuiste mía...
G----------------------------------------------------------------
D-------11----------------------------------------------------777
A---------------9-12-11-9-7----777------------7-9-7-9-7----7-----
E-9--9-----7-7---------------5------9--9-7-7-------------5-------

Y eso pasó
G------------------------------------------------
D--------------------------------------141414----
A--------------------------------12s14--------14-
E-0--12-12-0---12-12--12-12-0-12-----------------

Fué..........
G---------------------------------------------------
D---------------------------------------------------
A------------------------------------14141414141414-   x2
E-12-12-12-12-14-14-14-14-8-8-8-8-7-----------------

Solo Trompeta
G---------------------------------------------------
D---------------------------------------------------
A-2--2--0(x)-2-0(x)-2--0(x)-2--2--0(x)-2-0(x)-2-2-1-
E---------------------------------------------------

G-----------------------------------
D-----------------------------------
A-----------------------------------
E-5p3h5--0-3-55--0-3-555--0-3-555-5-

G---------------------------------------------------
D---------------------------------------------------
A-2--2--0(x)-2-0(x)-2--0(x)-2--2--0(x)-2-0(x)-2-2-1-
E---------------------------------------------------

G---------------------------------------
D---------------------------------------
A---------------------------------------
E-5--3h5--0-3-55--0-3-555--0-3-55-5-3-0-

Puente Guitarra x2

Suaves telas...
G-----------------------------------------------------------------
D------------------------------77-----------11--------------------
A--------------11-9--9----------------9s11---------11-9--9--------
E-9--9-9-7-7------------4-5-5------9------------7-----------5-5--7

Y lo más...
G------------------------------------------------------------------
D---------------------------------7-7-----------------------------7
A----------------9-12-11-9-----7------5------------7-9-7-9-7----7--
E-9-9--9-7-7----------------5------------9--9-7-7-------------5----

Y eso pasó
G--------------------------------------------------
D----------------------------------------141414----
A---------------------------------12s14---------14-
E-0--12-12-0---12-12--12-12-0-12-------------------

Fué..........
G--------------------------------------------
D----------------------------------------999-
A-------------------------------------9------
E-12-12-12-12-14-14-14-14-8-8-8-8-7----------

Y fué...
G------------------------------------------
D------6---------------------------9----9--
A-7-7-----7-9-7-9-7-------------9----9-----
E--------------------8-8-8-8-7--------------

Fué..........
G--------------------------------------------
D---------------------------------------999--
A------------------------------------9-------
E-12-12-12-12-14-14-14-14-8-8-8-8-7----------

Y fué...
G------------------------------------------
D-------6--------------------------9----9--  x3
A-7-7-----7-9-7-9-7-------------9----9-----
E--------------------8-8-8-8-7-------------

Final
G---------|
D---------|
A---------|
E--24-----|
     (MI)
Aviso: Este fichero es trabajo propio de su transcriptor y representa su interpretación personal de la canción. El material contenido en esta página es para exclusivo uso privado, por lo que se prohibe su reproducción o retransmisión, así como su uso para fines comerciales.

Califica esta canción


Comentarios en Facebook