Enviado por:
anonimo

Camila, Nada

Imprimir
estas tablaturas las saque a puro oido, y creo no hay error
-----------------------------------------------------------
Intro:

  E      F#     A     E
e-0----4-2--0---0------
B----0--------2----2--0
G----------------------
D----------------------
A----------------------
E----------------------

            E      F#        A                   E
e-----0-----7--9-7-9-9--9-12-14--12-9--7-7-4-2-0---
B-0-2---0-2--------------------------------------0-
G--------------------------------------------------
D--------------------------------------------------
A--------------------------------------------------
E--------------------------------------------------

E                      F#
Solamente pienso en ti
                       A
desde el dia que te vi
                     E
siento mariposas por dentro
E                    F#
Para ti fue temporal
                   A
una luz artificial
                        E
y eso me ha dolido este tiempo

F#m                          B
Dices que este amor fue un momento
    E    E7         A
un beso que no existio
F#m
mientras tu me olvidas
     B
yo intentooo
      F#m         B
prender a tu corazon


   E          F#
Y nada, nada oooo
    A       E
soy sin tu amor
         E                F#
sin tu amor no soy nada, nada
   A        E
soy sin tu amor

        e-7---4-2-0-
        B-----------
        G-----------
        D-----------

   E
Sabe amarga la verdad
  F#
o el invierno en la cuidad
   A                  E
que sin ti se cubre de hielo
   E
Yo he venido por aqui
   F#
alguien te arranco de mi
   A               E
o talvez soñaba despierto

         G-----------
         D--6-4-2-7--
         A-----------
         E-----------

   F#m                      B
Dices que este amor fue un momento
   E     E7    A
un beso que no existio
         F#m
mientras tu me olvidas
    B
yo intento
     F#m           B
prenderme a tu corazon


   E          F#
y nada, y nada oooo
    A       E
soy sin tu amor
         E                F#
sin tu amor no soy nada, nada
   A        E
soy sin tu amor

       E
Y no puedo respirar
      F#
nose como seguir
    A                                 E
porque hasta el aire sobra si no estas  asi
     E
no quiero verte mas
    F#
no tengo a donde ir
   A
se que no hay camino ni destino
  E                  E F# A
si tu no estas aqui

   E                                    E  F#   A
soy sin tu amor sin tu amor no soy nada,
        E
soy sin tu amor


  E
solamente pienso en ti
    F#
desde el dia que te vi
         A            E
siento mariposas por dentro

         e---0-4-2-0/4--
         B-0------------
         G--------------
         D--------------
     E
para ti fui temporal

         e-9-7-9-9--
         B----------
         G----------
         D----------
      F#
una luz artificial
            A               E
y eso me ha dolido este tiempo...
Aviso: Este fichero es trabajo propio de su transcriptor y representa su interpretación personal de la canción. El material contenido en esta página es para exclusivo uso privado, por lo que se prohibe su reproducción o retransmisión, así como su uso para fines comerciales.

Califica esta canción


Comentarios en Facebook