Las Pastillas Del Abuelo, Almafuerte

Imprimir
HOLA...

Intro

G|------------------------------------------------------------
D|---------3-3------------5-3-2------------3-3------------5-5-
A|-3-0-3--3-3---0-3-0-3--3-----5-0-3-0-3--3-3---0-3-0-3--3-5--
E|------------------------------------------------------------

Yo se que fieros y hambrientos...

G|-----------------------------
D|----------3-3---------5-5----
A|-0-3-0-3---3---3-0-3---5-----
E|-----------------------------

Siguiendo van tus cuidados...

G|--------------------------------
D|-----------3-3------------5-5---
A|-0-3-0-3--3-3---0-3-0-3--3-5----
E|--------------------------------

Por mas que sigan atentos...

G|---------------------------------
D|-----------3-3------------5-3-2--
A|-0-3-0-3--3-3---0-3-0-3--3-----5-
E|---------------------------------


...podrá ser que la ocasión, sin aprovechar se quede...

G|------------------------------
D|-----------3-3------------3---
A|-0-3-0-3--3-3---0-3-0-3--3----
E|------------------------------

...pues vigilarte no pueden...

G|----------------------------------------------------
D|--5-5-5-5-5--7-7-----------------5-5--5-5-----------
A|---5-----5----7--------7-5--------5----5----7-------
E|-----------------5-7-8----8-7-5---------------------

Intro



Yo se que el labio de un hombre...

G|-------------------------------
D|----------3-3---------5-5-55---
A|-0-3-0-3---3---3-0-3---5-------
E|-------------------------------

Recoge a montones lodo...

G|---------------------------------
D|-----------3-3------------5-5-5--
A|-0-3-0-3--3-3---0-3-0-3--3-5-----
E|---------------------------------

Me callo sin que me asombre...

G|----------------------------------
D|------------3-3------------5-3-2--
A|-0-3-0-3--35-3---0-3-0-3--3-----5-
E|----------------------------------

...de su vil difamación...

G|------------------------------
D|-----------3-3------------3---
A|-0-3-0-3--3-3---0-3-0-3--3----
E|------------------------------

...yo se que manchar no puede...

G|---------------------------------------------------
D|--5-5-5-5-5--7-7-----------------5-5--5-5----------
A|---5-----5----7--------7-5--------5----5----7------
E|-----------------5-7-8----8-7-5--------------------


Solo

G|------------------------------------------------------------
D|---------3-3------------5-3-2------------3-3------------3---
A|-3-0-3--3-3---0-3-0-3--3-----5-0-3-0-3--3-3---0-3-0-3--3----
E|------------------------------------------------------------

G|--------------------------------------------------
D|--5-5-5-5-5--7------------------5-5--5-5----------
A|---5-----5------------7-5--------5----5----7------
E|--------------------------8-7-5-------------------

Intro con un pequeño cambio

G|------------------------------------------------------------------
D|-----------3--3------------5-3-2--------------3--3------------5-5-
A|-3-0-3--3(5)-3---0-3-0-3--3-----5-0-3-0-3--3(5)-3---0-3-0-3--3-5--
E|------------------------------------------------------------------

y ojos, mano y labio impío...

G|--------------------------------------
D|---------33-33-35----------5-7---8-9--   x2
A|-33-33-35--------33-33-30-------------
E|--------------------------3---5-6-7---

Lucharan en el vacío...

G|----------------------------------
D|-----------3--3------------5-3-2--
A|-3-0-3--3(5)-3---0-3-0-3--3-----5-
E|----------------------------------

...hasta que de mi pasión...

G|---------------------------------
D|-------------3--3------------3---
A|-0-3-0-3--3(5)-3---0-3-0-3--3----
E|---------------------------------

Porque ni tu misma puedes...

G|---------------------------------------------------
D|--5-5-5-5-5--7-7-----------------5-5--5-5----------
A|---5-----5----7--------7-5--------5----5----7------
E|-----------------5-7-8----8-7-5--------------------

Final (base del solo)


¡132!
Aviso: Este fichero es trabajo propio de su transcriptor y representa su interpretación personal de la canción. El material contenido en esta página es para exclusivo uso privado, por lo que se prohibe su reproducción o retransmisión, así como su uso para fines comerciales.

Califica esta canción


Comentarios en Facebook