Enviado por:
anonimo

Los Bunkers, Instrumental 2

Imprimir
Esta canción se llama originalmente Galambito Temucano,
pero se conoce como instrumental 2 en el homenaje violeta parra.


Intro: 1ª Parte

 1|------------------------------------
 2|------12----12-12—-10---------------
 3|---9------9------------12-----------   x2
 4|------------------------------------
 5|------------------------------------
 6|------------------------------------


 1|--------------------------------------------------------
 2|------12----12--10—-12--13-13--15--13--12--13--12—10----
 3|---9------9-------------------------------------------12
 4|--------------------------------------------------------
 5|--------------------------------------------------------
 6|--------------------------------------------------------


 1|------------------------------------
 2|------12----12-12—-10---------------
 3|---9------9------------12-----------   x2
 4|------------------------------------
 5|------------------------------------
 6|------------------------------------


 1|--------------------------------------------------------
 2|------12----12--10—-12--13-13--15--13--12--13--12—10----
 3|---9------9-------------------------------------------12
 4|--------------------------------------------------------
 5|--------------------------------------------------------
 6|--------------------------------------------------------

2ª Parte

 1|------------------------------------
 2|---15--17--15--17--15--17--12-------
 3|------------------------------------   x2
 4|------------------------------------
 5|------------------------------------
 6|------------------------------------





 1|--------------------------------------------------------
 2|--12--14--12--14--12--14--15--15--17--15--14--15--14--12
 3|--------------------------------------------------------
 4|--------------------------------------------------------
 5|--------------------------------------------------------
 6|--------------------------------------------------------


 1|------------------------------------
 2|---15--17--15--17--15--17--12-------
 3|------------------------------------   x2
 4|------------------------------------
 5|------------------------------------
 6|------------------------------------





 1|--------------------------------------------------------
 2|--12--14--12--14--12--14--15--15--17--15--14--15--14--12
 3|--------------------------------------------------------
 4|--------------------------------------------------------
 5|--------------------------------------------------------
 6|--------------------------------------------------------



Después se repite todo esto hasta el final, espero que este
bien cualquier duda escríbanme a mi e-mail. Un saludo para
¡Sin Servicio! y pal Seryo.
Aviso: Este fichero es trabajo propio de su transcriptor y representa su interpretación personal de la canción. El material contenido en esta página es para exclusivo uso privado, por lo que se prohibe su reproducción o retransmisión, así como su uso para fines comerciales.

Califica esta canción


Comentarios en Facebook