Enviado por: Anonimo
Agrandar Letra
Reducir Letra
Imprimir


Otras Versiones de Pueblos Todos:




Danilo Montero, Pueblos Todos

Esta es la Continuación de Alabad a Jehova

Coro:
B---------------------------------|---------------------------------|
E-5---5-5------------5---2-----0--|--5---5-5-------------5---2------|
A-----------5---5-5---------2-----|------------5---5-5----------2---|
D---------------------------------|---------------------------------|
G---------------------------------|---------------------------------|

Estrofa:
B--------------------------------------|---------------------------------------------|
E--------------5---2-------------------|-------------5---2---------------------------|
A--5---5-5-------------2---2-2---0--2--|--5---5-5-------------2---2-2---0-0-0--2-2---|
D--------------------------------------|---------------------------------------------|
G--------------------------------------|---------------------------------------------|

-Coro.
-Estrofa.

Luego Va esto:
B---------------------------------|-----------------------------------------------|
E-5---5-5------------5---2-----0--|--2---0---2-------2----------------------------|
A-----------5---5-5---------2-----|-------------2---------3--2----3--2----0--0----|
D---------------------------------|-----------------------------------------------|
G---------------------------------|-----------------------------------------------|

Esta es la versión que toco en el bajo busquen Alabad A Jehova aquí
Si tienes dudas o no la puedes leer mandame un mail.

Fuente original: LaCuerda
Colaborador original: Daniel Galán Guevara [[email protected]]
Aviso: Este fichero es trabajo propio de su transcriptor y representa su interpretación personal de la canción. El material contenido en esta página es para exclusivo uso privado, por lo que se prohibe su reproducción o retransmisión, así como su uso para fines comerciales.

Califica esta canción


Comentarios en Facebook