Acordes y tablaturas para guitarra

Acordes y Tablaturas
Usuario: Password:

Buscar:
Acordes y Tablaturas >> Letra D >> Acordes de Danilo montero >> La casa de dios
Tablatura de La casa de dios, Danilo montero

La casa de dios

Danilo montero






1er solo de la guitarra...

   00:14
e|---------------------------------------------------------14h15h17-14h15h17-14--|
B|----------------------------------10/12---------12/15h17-----------------------|
G|-------7h9/11---97h9------7h9/11--------11-9-7--------------------------------|
D|---7/9-----------------7/9-----------------------------------------------------|
A|-------------------------------------------------------------------------------|
E|-------------------------------------------------------------------------------|


                                       00:28
e|-------------------------------------------------------------------------------|
B|--------17---------15b17b15----------------------------------------------------|
G|--16/18----1614------------14h16h14-12----------------------------------------|
D|-------------------------------------------------------------------------------|
A|-------------------------------------------------------------------------------|
E|-------------------------------------------------------------------------------|




2° solo de la guitarra, después del coro...

  01:29
e|-------------------------------------------------------------------------------|
B|-13/15-15-14-10/12-10------10-------------8-8--10/12--10-----------------------|
G|-------------------------11-----9-7-7--------------------9-7-6-----------------| 
D|--------------------------------------7/9----------------------7---------------| 
A|-----------------------------------------------------------------7-------------| 
E|-------------------------------------------------------------------------------|

                          01:42
e|------------------10/15--------------------------------------------------------|
B|-------------8/12--------------------------------------------------------------|
G|-----------7-------------------------------------------------------------------|
D|-----5h7/9---------------------------------------------------------------------|
A|---5---------------------------------------------------------------------------|
E|-7-----------------------------------------------------------------------------|


h --->hammer on(debes después de tocar la cuerda presionar con uno de 
tus dedos el otro número, tocando la cuerda tan solo una vez y no dos!)
 
1h2   --> presionas el traste 1 y luego sin tocar la cuerda de nuevo presionas
 el traste 2.


/  ---> Ligado (debes despues de tocar la cuerda arrastrartu dedo hasta el otro trate
tocando la cuerda tan solo una vez y no dos!)

5/10 -->tocas la cuerda en el traste 5 y arrastras tu dedo hasta el traste 10, pero 
tienes ke lograr ke siga sonando.


b ---> levantar(debes de levantar el dedo en el traste de modo ke suene y se agudize el sonido)

10b12 --> en el traste 10 levantas la cuerda de modo ke suene como el 12, lo haces subir de tono.


Espero ke puedan tocarlo, yo todavia no cumplo un año tocando la guitarra y ya me sale.


CHAO

Fuente original: LaCuerda
Colaborador original: Juan Pablo Benitez [[email protected]]

Que te parecio? Calificalo con estrellas!!

Rating: 7.3/10 (97 votos)

Este fichero es trabajo propio de su transcriptor y representa su interpretación personal de la canción. El material contenido en esta página es para exclusivo uso privado, por lo que se prohibe su reproducción o retransmisión, así como su uso para fines comerciales.


Deja tus comentarios:

Letras de Danilo montero
Letras de canciones | Musica Independiente