Enviado por:
anonimo

Maná, Cachito

HOLA!!! QUERIDOS AMIGOS EH VENIDO CON UN "cachito" DE RIPMO
Y UNA ROLA QUE ESTA DE COMPLETITO ASI QUE AHI LES VA:
=======================COMIENZO================================
INTRO:[VUENO PRIMERO ENPIEZA CON UN POCO DE PERCUCIÓN
 Y ENPIEZA EL BAJO DE ESTA FOROMA]
G----------------------------------
D--2--3-2--------------------------
A---------5--3--2--0--2-0--2-0-2---
E----------------------------------

[AHORA ENTRA LA GUITARRA]
 INTRO: [C F G] X2

  VERSOS
C                               F
 Tan solo un adicto, un adicto de tu sol
         C                                  F
 y es que con solo un cachito, un pedasito de tu luz
      C                 Em
 yo llegaria al cielo o me caeria al suelo
           F      G
 por ti mi amor, oh no tan solo.

[AHORA EL CORO]
C                      F
Un cachito de tu corazon
         G    C
ay ay ay, eoh
             Em     F    G
un adicto de tu corazon

oh oh, eoh
C                      F
un cachito de tu corazon
        G       C
ay ay ay, eoh
                 Em     F    G
soy un adicto de tu corazon.
 [FIN DEL CORO]
INTRO:[C F G]
[FINAL DEL INTRO EL BAJO HACE ESTO]
G----------------------------------
D--2--3-2--------------------------
A---------5--3--2--0--2-0--2-0-2---
E----------------------------------

[EL SIGUIENTE VERSO SE HACE CON LOS MISMOS ACORDES DE PRIMER
VERSO]

Pedirle a mi cabeza, que deje de pensar en ti
es casi como pecirle, a mi corazon
que deje de latir, mas bien olvida eso
no, no repitas eso, te pido amor

 [CORO]
C                      F
Un cachito de tu corazon
         G    C
ay ay ay, eoh
             Em     F    G
un adicto de tu corazon

oh oh, eoh
C                      F
un cachito de tu corazon
        G       C
ay ay ay, eoh
                 Em     F    G
soy un adicto de tu corazon.

AHORA ESTE SOLO:
1.--5-5-5-3-3-1-1-0-1-------3-----5------7~~---8--7--|
2.--6-6-6-5-5-3-3-1-3---3/5---5/6---6/8--------------|
3.---------------------------------------------------|
4.---------------------------------------------------|
5.---------------------------------------------------|
6.---------------------------------------------------|

1.--8-7-3-0---8-7-1---8-8-7-5-3-1-0--|
2.--8-8-5-1---8-8-3---8-8-8-8-5-3-1--|
3.-----------------------------------|
4.-----------------------------------|
5.-----------------------------------|
6.-----------------------------------|

LUEGO SE RASGUEA ESTOS ACORDES:
[C F G]

[LUEGO ESTE SOLO]
SOLO
1.--8-8-8-8-8--8-8-8-8--8-8-8-8-8-8--8-7-5-7--|X2
2.--8-8-8-8-8--8-8-8-8--8-8-8-8-8-8--8-8-8-8--|
3.--7-7-7-7-7--7-7-7-7--7-7-7-7-7-7-----------|
4.--------------------------------------------|
5.--------------------------------------------|
1.--------------------------------------------|

CHIQUITITA DE MI CORAZÓN X4 [CON LOS ACORDES DEL CORO]

[LUEGO EL SOLO DE TROMPETAS]CON LOS ACORDES DE CORO]
===========================FIN=================================
BUENO AMIGOS ESO ES VERDADERAMENTE COMO SE TOCA ESTA CANCIÓN
ESTA "completita y explicada" OK BUENO
"practiquen" OK CHAÚ.

  [email protected]  16/01/06  14:37hs
  CHAÚ!!!
Aviso: Este fichero es trabajo propio de su transcriptor y representa su interpretación personal de la canción. El material contenido en esta página es para exclusivo uso privado, por lo que se prohibe su reproducción o retransmisión, así como su uso para fines comerciales.

Califica esta canción


Comentarios en Facebook