Acordes y tablaturas para guitarra

Acordes y Tablaturas
Usuario: Password:

Buscar:
Acordes y Tablaturas >> Letra D >> Acordes de Danilo montero >> Eres todopoderoso
Tablatura de Eres todopoderoso, Danilo montero

Eres todopoderoso

Danilo montero






HOLA AQUI LES MANDO LA INTRO Y EL SOLO
es mas o menos así:

esta es la intro:

la segunda se que da en Bm
la primera guitarra hace esto:


e|----------------------------------------
E|----------------------------------------
G|-----7---9--7-----7-------7-------------
D|-7h9---9-------9-----7h9-----9----------
A|----------------------------------------
E|----------------------------------------


e|----------------------------------------
E|----------------------------------------
G|-----7---9--7-----7-------7--7-7--------
D|-7h9---9-------9-----7h9-----9-9--------
A|----------------------------------------
E|----------------------------------------


Este es el solo si no me equivoco:

e|------------------------------------
B|------------------------------------
G|-10-12-13--10-12-13--13/15-13-12-15-
D|------------------------------------
A|------------------------------------
E|------------------------------------


e|---------------------11/12-14-15-14-
B|------------------------------------
G|-10-12-13--10-12-13-----------------
D|------------------------------------
A|------------------------------------
E|------------------------------------


el intermedio es la primera mitad de la intro

despues del solo sube un tono la pieza está en Bm sube a C#m



Cualquier duda comentario a Horacio

Fuente original: LaCuerda
Colaborador original: Horacio Ureña García [[email protected]]

Que te parecio? Calificalo con estrellas!!

Rating: 6.4/10 (83 votos)

Este fichero es trabajo propio de su transcriptor y representa su interpretación personal de la canción. El material contenido en esta página es para exclusivo uso privado, por lo que se prohibe su reproducción o retransmisión, así como su uso para fines comerciales.


Deja tus comentarios:

Letras de Danilo montero
Letras de canciones | Musica Independiente