Enviado por: Anonimo
Agrandar Letra
Reducir Letra
Imprimir


Otras Versiones de El Es El Rey:









Danilo Montero, El Es El Rey

VERSO;

  el es el rey infinito...............

  E--0-0-3--0-0-3-5----0-0-3--0-0-3-5-----3-3-3-----
  A----------------3-----------------3h5h3-----5-5-5
  D-------------------------------------------------
  G-------------------------------------------------

  el es el rey lo confiesa.............

  E--0-0-3--0-0-3-5----0-0-3--0-0-3-5-----3-3-3-----
  A----------------3-----------------3h5h3-----5-5-5
  D-------------------------------------------------
  G-------------------------------------------------

  CORO:

  el es el rey

  E---0-0--5-7----0--5-7-----3-3-3------
  A------------5---7------5-------5-5---
  D-------------------------------------
  G-------------------------------------
-
  E----------------0-0------5-55--------
  A--3--3-3--5-5--7-7-7--5-5----5-5-5sh7
  D-------------------------------------
  G-------------------------------------

Fuente original: LaCuerda
Colaborador original: dan ismael alvarez lapizco [[email protected]]
Aviso: Este fichero es trabajo propio de su transcriptor y representa su interpretación personal de la canción. El material contenido en esta página es para exclusivo uso privado, por lo que se prohibe su reproducción o retransmisión, así como su uso para fines comerciales.

Califica esta canción


Comentarios en Facebook